ISO-10303-21;
HEADER;
FILE_DESCRIPTION (( 'STEP AP203' ),
    '1' );
FILE_NAME ('20147-E0W.STEP',
    '2018-06-20T14:22:17',
    ( 'admin' ),
    ( '' ),
    'SwSTEP 2.0',
    'SolidWorks 2016',
    '' );
FILE_SCHEMA (( 'CONFIG_CONTROL_DESIGN' ));
ENDSEC;

DATA;
#1 = ORIENTED_EDGE ( 'NONE', *, *, #302, .F. ) ;
#2 = DIRECTION ( 'NONE',  ( -0.0000000000000000000, 3.061515884555673500E-016, -1.000000000000000000 ) ) ;
#3 = APPROVAL_STATUS ( 'not_yet_approved' ) ;
#4 = UNCERTAINTY_MEASURE_WITH_UNIT (LENGTH_MEASURE( 1.000000000000000100E-005 ), #31, 'distance_accuracy_value', 'NONE');
#5 = APPROVAL_ROLE ( '' ) ;
#6 = APPROVAL ( #251, 'UNSPECIFIED' ) ;
#7 = AXIS2_PLACEMENT_3D ( 'NONE', #50, #97, #262 ) ;
#8 = DIRECTION ( 'NONE',  ( 0.0000000000000000000, -1.000000000000000000, -3.122502256758249300E-016 ) ) ;
#9 = EDGE_LOOP ( 'NONE', ( #68, #159, #93, #192 ) ) ;
#10 = DIRECTION ( 'NONE',  ( 8.909427642397310700E-017, -0.7275099766398278600, -0.6860971023765638500 ) ) ;
#11 = EDGE_CURVE ( 'NONE', #257, #43, #214, .T. ) ;
#12 = PERSON_AND_ORGANIZATION_ROLE ( 'design_owner' ) ;
#13 = CARTESIAN_POINT ( 'NONE',  ( 0.0000000000000000000, -1.060393391573597100E-015, 8.612361067440760500 ) ) ;
#14 = FACE_OUTER_BOUND ( 'NONE', #112, .T. ) ;
#15 = DIRECTION ( 'NONE',  ( -0.0000000000000000000, 3.061515884555943100E-016, -1.000000000000000000 ) ) ;
#16 = ORIENTED_EDGE ( 'NONE', *, *, #168, .T. ) ;
#17 = CYLINDRICAL_SURFACE ( 'NONE', #133, 0.5000000000000000000 ) ;
#18 = COORDINATED_UNIVERSAL_TIME_OFFSET ( 5, 0, .BEHIND. ) ;
#19 = ADVANCED_FACE ( 'NONE', ( #14 ), #87, .T. ) ;
#20 = DIRECTION ( 'NONE',  ( 8.659560562354895900E-017, 0.7071067811865442400, 0.7071067811865507900 ) ) ;
#21 = CONICAL_SURFACE ( 'NONE', #154, 0.5000000000000000000, 0.8146856743721295800 ) ;
#22 = CC_DESIGN_APPROVAL ( #6, ( #297 ) ) ;
#23 = AXIS2_PLACEMENT_3D ( 'NONE', #193, #53, #224 ) ;
#24 = CIRCLE ( 'NONE', #23, 0.5000000000000000000 ) ;
#25 = CARTESIAN_POINT ( 'NONE',  ( 0.0000000000000000000, -1.653770342385106100E-017, 0.07819011366160194500 ) ) ;
#26 = EDGE_CURVE ( 'NONE', #194, #43, #149, .T. ) ;
#27 = FACE_OUTER_BOUND ( 'NONE', #212, .T. ) ;
#28 = ORGANIZATION ( 'UNSPECIFIED', 'UNSPECIFIED', '' ) ;
#29 = DIRECTION ( 'NONE',  ( -0.0000000000000000000, 3.061515884555673500E-016, -1.000000000000000000 ) ) ;
#30 = CARTESIAN_POINT ( 'NONE',  ( 0.0000000000000000000, 3.374899400297890000E-017, -0.08606412940963387200 ) ) ;
#31 =( CONVERSION_BASED_UNIT ( 'INCH', #272 ) LENGTH_UNIT ( ) NAMED_UNIT ( #64 ) );
#32 = DIRECTION ( 'NONE',  ( 0.0000000000000000000, 1.000000000000000000, 2.558825077498747200E-016 ) ) ;
#33 = APPLICATION_PROTOCOL_DEFINITION ( 'international standard', 'config_control_design', 1994, #179 ) ;
#34 = VERTEX_POINT ( 'NONE', #94 ) ;
#35 = CARTESIAN_POINT ( 'NONE',  ( 0.0000000000000000000, -1.060393391573597100E-015, 8.612361067440760500 ) ) ;
#36 = FACE_OUTER_BOUND ( 'NONE', #227, .T. ) ;
#37 = CC_DESIGN_PERSON_AND_ORGANIZATION_ASSIGNMENT ( #273, #190, ( #297 ) ) ;
#38 = AXIS2_PLACEMENT_3D ( 'NONE', #76, #29, #98 ) ;
#39 = VECTOR ( 'NONE', #165, 39.37007874015748100 ) ;
#40 = EDGE_CURVE ( 'NONE', #48, #194, #114, .T. ) ;
#41 = ADVANCED_FACE ( 'NONE', ( #74 ), #21, .T. ) ;
#42 = AXIS2_PLACEMENT_3D ( 'NONE', #173, #147, #8 ) ;
#43 = VERTEX_POINT ( 'NONE', #216 ) ;
#44 = ORIENTED_EDGE ( 'NONE', *, *, #26, .F. ) ;
#45 = VECTOR ( 'NONE', #69, 39.37007874015748100 ) ;
#46 = CARTESIAN_POINT ( 'NONE',  ( 0.0000000000000000000, 3.374899400297892500E-017, -0.08606412940963394100 ) ) ;
#47 = PERSON_AND_ORGANIZATION ( #248, #28 ) ;
#48 = VERTEX_POINT ( 'NONE', #240 ) ;
#49 = PERSON_AND_ORGANIZATION ( #248, #28 ) ;
#50 = CARTESIAN_POINT ( 'NONE',  ( 0.0000000000000000000, 3.374899400297890000E-017, -0.08606412940963387200 ) ) ;
#51 = CARTESIAN_POINT ( 'NONE',  ( 0.0000000000000000000, 0.5000000000000000000, 0.07819011366160216700 ) ) ;
#52 = CC_DESIGN_PERSON_AND_ORGANIZATION_ASSIGNMENT ( #281, #156, ( #297 ) ) ;
#53 = DIRECTION ( 'NONE',  ( 0.0000000000000000000, -3.061515884555945600E-016, 1.000000000000000000 ) ) ;
#54 =( NAMED_UNIT ( * ) SI_UNIT ( $, .STERADIAN. ) SOLID_ANGLE_UNIT ( ) );
#55 = DIRECTION ( 'NONE',  ( 0.0000000000000000000, 0.0000000000000000000, 1.000000000000000000 ) ) ;
#56 = EDGE_CURVE ( 'NONE', #77, #34, #215, .T. ) ;
#57 = APPROVAL_ROLE ( '' ) ;
#58 = DIRECTION ( 'NONE',  ( 0.0000000000000000000, -3.061515884555673500E-016, 1.000000000000000000 ) ) ;
#59 = APPROVAL_PERSON_ORGANIZATION ( #161, #6, #5 ) ;
#60 = AXIS2_PLACEMENT_3D ( 'NONE', #122, #244, #172 ) ;
#61 = EDGE_LOOP ( 'NONE', ( #249, #217, #241 ) ) ;
#62 = DIRECTION ( 'NONE',  ( -0.0000000000000000000, 3.061515884555943100E-016, -1.000000000000000000 ) ) ;
#63 = EDGE_LOOP ( 'NONE', ( #136, #104, #182, #268 ) ) ;
#64 = DIMENSIONAL_EXPONENTS ( 1.000000000000000000, 0.0000000000000000000, 0.0000000000000000000, 0.0000000000000000000, 0.0000000000000000000, 0.0000000000000000000, 0.0000000000000000000 ) ;
#65 = SECURITY_CLASSIFICATION ( '', '', #157 ) ;
#66 = CIRCLE ( 'NONE', #186, 8.540944881889764400 ) ;
#67 = COORDINATED_UNIVERSAL_TIME_OFFSET ( 5, 0, .BEHIND. ) ;
#68 = ORIENTED_EDGE ( 'NONE', *, *, #269, .T. ) ;
#69 = DIRECTION ( 'NONE',  ( -0.0000000000000000000, 3.061515884555943100E-016, -1.000000000000000000 ) ) ;
#70 = EDGE_CURVE ( 'NONE', #34, #142, #66, .T. ) ;
#71 = AXIS2_PLACEMENT_3D ( 'NONE', #266, #123, #292 ) ;
#72 = DIRECTION ( 'NONE',  ( -0.0000000000000000000, 3.061515884555943100E-016, -1.000000000000000000 ) ) ;
#73 = DIRECTION ( 'NONE',  ( 0.0000000000000000000, -3.061515884555673500E-016, 1.000000000000000000 ) ) ;
#74 = FACE_OUTER_BOUND ( 'NONE', #246, .T. ) ;
#75 = PERSON_AND_ORGANIZATION ( #248, #28 ) ;
#76 = CARTESIAN_POINT ( 'NONE',  ( 0.0000000000000000000, -1.653770342385106100E-017, 0.07819011366160194500 ) ) ;
#77 = VERTEX_POINT ( 'NONE', #286 ) ;
#78 = DIRECTION ( 'NONE',  ( -0.0000000000000000000, 3.061515884555943100E-016, -1.000000000000000000 ) ) ;
#79 = DESIGN_CONTEXT ( 'detailed design', #179, 'design' ) ;
#80 = CIRCLE ( 'NONE', #71, 0.5000000000000000000 ) ;
#81 = APPLICATION_PROTOCOL_DEFINITION ( 'international standard', 'config_control_design', 1994, #102 ) ;
#82 = CARTESIAN_POINT ( 'NONE',  ( 0.0000000000000000000, 1.550086033489409300E-015, 0.08560659841446864600 ) ) ;
#83 = APPROVAL_PERSON_ORGANIZATION ( #261, #113, #167 ) ;
#84 = DATE_TIME_ROLE ( 'creation_date' ) ;
#85 = SPHERICAL_SURFACE ( 'NONE', #236, 8.540944881889764400 ) ;
#86 = CC_DESIGN_PERSON_AND_ORGANIZATION_ASSIGNMENT ( #295, #284, ( #65 ) ) ;
#87 = CONICAL_SURFACE ( 'NONE', #117, 0.4921259842519690700, 0.7853981633974439500 ) ;
#88 = EDGE_CURVE ( 'NONE', #77, #142, #127, .T. ) ;
#89 = AXIS2_PLACEMENT_3D ( 'NONE', #101, #267, #124 ) ;
#90 = ADVANCED_FACE ( 'NONE', ( #91 ), #85, .F. ) ;
#91 = FACE_OUTER_BOUND ( 'NONE', #144, .T. ) ;
#92 = LOCAL_TIME ( 10, 22, 17.00000000000000000, #221 ) ;
#93 = ORIENTED_EDGE ( 'NONE', *, *, #26, .T. ) ;
#94 = CARTESIAN_POINT ( 'NONE',  ( 6.026926003708430300E-017, -0.4921358556527966100, 0.08560659841446918700 ) ) ;
#95 = ORIENTED_EDGE ( 'NONE', *, *, #184, .T. ) ;
#96 = CALENDAR_DATE ( 2018, 20, 6 ) ;
#97 = DIRECTION ( 'NONE',  ( -0.0000000000000000000, 3.061515884555943100E-016, -1.000000000000000000 ) ) ;
#98 = DIRECTION ( 'NONE',  ( 0.0000000000000000000, 1.000000000000000000, 3.073328992872296400E-016 ) ) ;
#99 = CC_DESIGN_DATE_AND_TIME_ASSIGNMENT ( #141, #139, ( #65 ) ) ;
#100 = FACE_OUTER_BOUND ( 'NONE', #61, .T. ) ;
#101 = CARTESIAN_POINT ( 'NONE',  ( 0.0000000000000000000, 3.374899400297892500E-017, -0.08606412940963394100 ) ) ;
#102 = APPLICATION_CONTEXT ( 'configuration controlled 3d designs of mechanical parts and assemblies' ) ;
#103 = EDGE_CURVE ( 'NONE', #276, #194, #260, .T. ) ;
#104 = ORIENTED_EDGE ( 'NONE', *, *, #131, .F. ) ;
#105 = CONICAL_SURFACE ( 'NONE', #42, 0.4921259842519690700, 0.7853981633974439500 ) ;
#106 =( GEOMETRIC_REPRESENTATION_CONTEXT ( 3 ) GLOBAL_UNCERTAINTY_ASSIGNED_CONTEXT ( ( #4 ) ) GLOBAL_UNIT_ASSIGNED_CONTEXT ( ( #31, #196, #54 ) ) REPRESENTATION_CONTEXT ( 'NONE', 'WORKASPACE' ) );
#107 = CIRCLE ( 'NONE', #253, 0.4921259842519690700 ) ;
#108 = CALENDAR_DATE ( 2018, 20, 6 ) ;
#109 = ORIENTED_EDGE ( 'NONE', *, *, #279, .F. ) ;
#110 = ORIENTED_EDGE ( 'NONE', *, *, #56, .F. ) ;
#111 = ADVANCED_FACE ( 'NONE', ( #36 ), #206, .T. ) ;
#112 = EDGE_LOOP ( 'NONE', ( #1, #188, #44, #254 ) ) ;
#113 = APPROVAL ( #3, 'UNSPECIFIED' ) ;
#114 = LINE ( 'NONE', #259, #39 ) ;
#115 = CARTESIAN_POINT ( 'NONE',  ( 0.0000000000000000000, 3.133835157419487100E-017, -0.07819011366160295900 ) ) ;
#116 = EDGE_CURVE ( 'NONE', #169, #43, #208, .T. ) ;
#117 = AXIS2_PLACEMENT_3D ( 'NONE', #46, #280, #189 ) ;
#118 = ORIENTED_EDGE ( 'NONE', *, *, #302, .T. ) ;
#119 = CARTESIAN_POINT ( 'NONE',  ( 6.123233995736766000E-017, -0.5000000000000000000, -0.07819011366160312500 ) ) ;
#120 = CARTESIAN_POINT ( 'NONE',  ( 0.0000000000000000000, -1.653770342385125800E-017, 0.07819011366160201500 ) ) ;
#121 = CYLINDRICAL_SURFACE ( 'NONE', #7, 0.5000000000000000000 ) ;
#122 = CARTESIAN_POINT ( 'NONE',  ( 0.0000000000000000000, -1.060393391573597100E-015, 8.612361067440760500 ) ) ;
#123 = DIRECTION ( 'NONE',  ( -0.0000000000000000000, 3.061515884555673500E-016, -1.000000000000000000 ) ) ;
#124 = DIRECTION ( 'NONE',  ( 0.0000000000000000000, 1.000000000000000000, 3.122502256758249300E-016 ) ) ;
#125 = DIRECTION ( 'NONE',  ( 0.0000000000000000000, 0.0000000000000000000, 1.000000000000000000 ) ) ;
#126 = ORIENTED_EDGE ( 'NONE', *, *, #70, .T. ) ;
#127 = CIRCLE ( 'NONE', #204, 8.540944881889766200 ) ;
#128 = CC_DESIGN_APPROVAL ( #113, ( #65 ) ) ;
#129 = CLOSED_SHELL ( 'NONE', ( #41, #19, #90, #132, #111, #304, #234, #256, #213 ) ) ;
#130 = CIRCLE ( 'NONE', #89, 0.4921259842519690700 ) ;
#131 = EDGE_CURVE ( 'NONE', #48, #257, #107, .T. ) ;
#132 = ADVANCED_FACE ( 'NONE', ( #140 ), #121, .T. ) ;
#133 = AXIS2_PLACEMENT_3D ( 'NONE', #30, #78, #148 ) ;
#134 = AXIS2_PLACEMENT_3D ( 'NONE', #115, #283, #138 ) ;
#135 = FACE_OUTER_BOUND ( 'NONE', #63, .T. ) ;
#136 = ORIENTED_EDGE ( 'NONE', *, *, #11, .F. ) ;
#137 = APPROVAL_DATE_TIME ( #207, #113 ) ;
#138 = DIRECTION ( 'NONE',  ( 0.0000000000000000000, 1.000000000000000000, 3.073328992872296400E-016 ) ) ;
#139 = DATE_TIME_ROLE ( 'classification_date' ) ;
#140 = FACE_OUTER_BOUND ( 'NONE', #9, .T. ) ;
#141 = DATE_AND_TIME ( #210, #303 ) ;
#142 = VERTEX_POINT ( 'NONE', #143 ) ;
#143 = CARTESIAN_POINT ( 'NONE',  ( 0.0000000000000000000, 2.077412491493646100E-015, 0.07141618555099517300 ) ) ;
#144 = EDGE_LOOP ( 'NONE', ( #183, #126, #237 ) ) ;
#145 = DIRECTION ( 'NONE',  ( 0.0000000000000000000, -1.000000000000000000, -3.073328992872296400E-016 ) ) ;
#146 = CC_DESIGN_SECURITY_CLASSIFICATION ( #65, ( #297 ) ) ;
#147 = DIRECTION ( 'NONE',  ( 0.0000000000000000000, -3.061515884555945600E-016, 1.000000000000000000 ) ) ;
#148 = DIRECTION ( 'NONE',  ( 0.0000000000000000000, 1.000000000000000000, 3.073328992872296400E-016 ) ) ;
#149 = CIRCLE ( 'NONE', #134, 0.5000000000000000000 ) ;
#150 = MECHANICAL_CONTEXT ( 'NONE', #102, 'mechanical' ) ;
#151 = DIRECTION ( 'NONE',  ( 1.000000000000000000, 1.224646799147353200E-016, 3.749275628560213600E-032 ) ) ;
#152 = EDGE_CURVE ( 'NONE', #34, #77, #174, .T. ) ;
#153 = ORIENTED_EDGE ( 'NONE', *, *, #103, .F. ) ;
#154 = AXIS2_PLACEMENT_3D ( 'NONE', #25, #2, #238 ) ;
#155 = CALENDAR_DATE ( 2018, 20, 6 ) ;
#156 = PERSON_AND_ORGANIZATION_ROLE ( 'design_supplier' ) ;
#157 = SECURITY_CLASSIFICATION_LEVEL ( 'unclassified' ) ;
#158 = CONICAL_SURFACE ( 'NONE', #38, 0.5000000000000000000, 0.8146856743721295800 ) ;
#159 = ORIENTED_EDGE ( 'NONE', *, *, #103, .T. ) ;
#160 = VECTOR ( 'NONE', #15, 39.37007874015748100 ) ;
#161 = PERSON_AND_ORGANIZATION ( #248, #28 ) ;
#162 = PRODUCT_RELATED_PRODUCT_CATEGORY ( 'detail', '', ( #178 ) ) ;
#163 = CALENDAR_DATE ( 2018, 20, 6 ) ;
#164 = CARTESIAN_POINT ( 'NONE',  ( 6.026805113914147300E-017, 0.4921259842519690700, -0.08606412940963378800 ) ) ;
#165 = DIRECTION ( 'NONE',  ( 0.0000000000000000000, -0.7071067811865446900, 0.7071067811865503500 ) ) ;
#166 = DATE_AND_TIME ( #96, #258 ) ;
#167 = APPROVAL_ROLE ( '' ) ;
#168 = EDGE_CURVE ( 'NONE', #276, #169, #264, .T. ) ;
#169 = VERTEX_POINT ( 'NONE', #51 ) ;
#170 = VECTOR ( 'NONE', #175, 39.37007874015748100 ) ;
#171 = AXIS2_PLACEMENT_3D ( 'NONE', #82, #58, #201 ) ;
#172 = DIRECTION ( 'NONE',  ( 0.0000000000000000000, 1.000000000000000000, 2.558825077498747200E-016 ) ) ;
#173 = CARTESIAN_POINT ( 'NONE',  ( 0.0000000000000000000, 3.374899400297892500E-017, -0.08606412940963394100 ) ) ;
#174 = CIRCLE ( 'NONE', #298, 0.4921358556527701800 ) ;
#175 = DIRECTION ( 'NONE',  ( 0.0000000000000000000, 0.7275099766398283000, -0.6860971023765634100 ) ) ;
#176 = COORDINATED_UNIVERSAL_TIME_OFFSET ( 5, 0, .BEHIND. ) ;
#177 =( LENGTH_UNIT ( ) NAMED_UNIT ( * ) SI_UNIT ( $, .METRE. ) );
#178 = PRODUCT ( '20147-E0W', '20147-E0W', '', ( #150 ) ) ;
#179 = APPLICATION_CONTEXT ( 'configuration controlled 3d designs of mechanical parts and assemblies' ) ;
#180 = CARTESIAN_POINT ( 'NONE',  ( 0.0000000000000000000, -1.060393391573597100E-015, 8.612361067440760500 ) ) ;
#181 = ORIENTED_EDGE ( 'NONE', *, *, #285, .T. ) ;
#182 = ORIENTED_EDGE ( 'NONE', *, *, #40, .T. ) ;
#183 = ORIENTED_EDGE ( 'NONE', *, *, #56, .T. ) ;
#184 = EDGE_CURVE ( 'NONE', #43, #194, #24, .T. ) ;
#185 = AXIS2_PLACEMENT_3D ( 'NONE', #270, #125, #293 ) ;
#186 = AXIS2_PLACEMENT_3D ( 'NONE', #13, #151, #271 ) ;
#187 = VECTOR ( 'NONE', #10, 39.37007874015748100 ) ;
#188 = ORIENTED_EDGE ( 'NONE', *, *, #11, .T. ) ;
#189 = DIRECTION ( 'NONE',  ( 0.0000000000000000000, -1.000000000000000000, -3.122502256758249300E-016 ) ) ;
#190 = PERSON_AND_ORGANIZATION_ROLE ( 'creator' ) ;
#191 = ADVANCED_BREP_SHAPE_REPRESENTATION ( '20147-E0W', ( #300, #185 ), #106 ) ;
#192 = ORIENTED_EDGE ( 'NONE', *, *, #116, .F. ) ;
#193 = CARTESIAN_POINT ( 'NONE',  ( 0.0000000000000000000, 3.133835157419487100E-017, -0.07819011366160295900 ) ) ;
#194 = VERTEX_POINT ( 'NONE', #119 ) ;
#195 = CARTESIAN_POINT ( 'NONE',  ( 6.075019554825457300E-017, 0.4921259842519690700, -0.08606412940963378800 ) ) ;
#196 =( NAMED_UNIT ( * ) PLANE_ANGLE_UNIT ( ) SI_UNIT ( $, .RADIAN. ) );
#197 = ORIENTED_EDGE ( 'NONE', *, *, #279, .T. ) ;
#198 = DIRECTION ( 'NONE',  ( 1.000000000000000000, 0.0000000000000000000, -0.0000000000000000000 ) ) ;
#199 = DATE_AND_TIME ( #155, #92 ) ;
#200 = APPROVAL_STATUS ( 'not_yet_approved' ) ;
#201 = DIRECTION ( 'NONE',  ( 0.0000000000000000000, -1.000000000000000000, -3.122439624720927100E-016 ) ) ;
#202 = ORIENTED_EDGE ( 'NONE', *, *, #285, .F. ) ;
#203 = CC_DESIGN_PERSON_AND_ORGANIZATION_ASSIGNMENT ( #49, #12, ( #178 ) ) ;
#204 = AXIS2_PLACEMENT_3D ( 'NONE', #180, #228, #55 ) ;
#205 = APPROVAL_DATE_TIME ( #199, #6 ) ;
#206 = PLANE ( 'NONE',  #265 ) ;
#207 = DATE_AND_TIME ( #163, #226 ) ;
#208 = LINE ( 'NONE', #232, #45 ) ;
#209 = CARTESIAN_POINT ( 'NONE',  ( 0.0000000000000000000, 3.374899400297892500E-017, -0.08606412940963394100 ) ) ;
#210 = CALENDAR_DATE ( 2018, 20, 6 ) ;
#211 = DIRECTION ( 'NONE',  ( 0.0000000000000000000, 1.000000000000000000, 3.061515884555943100E-016 ) ) ;
#212 = EDGE_LOOP ( 'NONE', ( #153, #16, #289, #95 ) ) ;
#213 = ADVANCED_FACE ( 'NONE', ( #274 ), #158, .T. ) ;
#214 = LINE ( 'NONE', #164, #296 ) ;
#215 = CIRCLE ( 'NONE', #171, 0.4921358556527701800 ) ;
#216 = CARTESIAN_POINT ( 'NONE',  ( 0.0000000000000000000, 0.5000000000000000000, -0.07819011366160280600 ) ) ;
#217 = ORIENTED_EDGE ( 'NONE', *, *, #152, .T. ) ;
#218 = ORIENTED_EDGE ( 'NONE', *, *, #131, .T. ) ;
#219 = CARTESIAN_POINT ( 'NONE',  ( 0.0000000000000000000, 3.374899400297892500E-017, -0.08606412940963394100 ) ) ;
#220 = SHAPE_DEFINITION_REPRESENTATION ( #255, #191 ) ;
#221 = COORDINATED_UNIVERSAL_TIME_OFFSET ( 5, 0, .BEHIND. ) ;
#222 = PRODUCT_DEFINITION ( 'UNKNOWN', '', #297, #79 ) ;
#223 = CARTESIAN_POINT ( 'NONE',  ( 0.0000000000000000000, 1.550086033489409300E-015, 0.08560659841446864600 ) ) ;
#224 = DIRECTION ( 'NONE',  ( 0.0000000000000000000, 1.000000000000000000, 3.073328992872296400E-016 ) ) ;
#225 = CARTESIAN_POINT ( 'NONE',  ( 6.123233995736764800E-017, -0.5000000000000000000, 0.07819011366160179300 ) ) ;
#226 = LOCAL_TIME ( 10, 22, 17.00000000000000000, #18 ) ;
#227 = EDGE_LOOP ( 'NONE', ( #218, #118 ) ) ;
#228 = DIRECTION ( 'NONE',  ( -1.000000000000000000, 0.0000000000000000000, 0.0000000000000000000 ) ) ;
#229 = PERSON_AND_ORGANIZATION_ROLE ( 'creator' ) ;
#230 = EDGE_LOOP ( 'NONE', ( #109, #110, #181, #294 ) ) ;
#231 = APPROVAL_PERSON_ORGANIZATION ( #75, #235, #57 ) ;
#232 = CARTESIAN_POINT ( 'NONE',  ( 0.0000000000000000000, 0.5000000000000000000, -0.08606412940963371900 ) ) ;
#233 = APPROVAL_DATE_TIME ( #166, #235 ) ;
#234 = ADVANCED_FACE ( 'NONE', ( #100 ), #288, .F. ) ;
#235 = APPROVAL ( #200, 'UNSPECIFIED' ) ;
#236 = AXIS2_PLACEMENT_3D ( 'NONE', #35, #198, #32 ) ;
#237 = ORIENTED_EDGE ( 'NONE', *, *, #88, .F. ) ;
#238 = DIRECTION ( 'NONE',  ( 0.0000000000000000000, 1.000000000000000000, 3.073328992872296400E-016 ) ) ;
#239 = DATE_AND_TIME ( #108, #301 ) ;
#240 = CARTESIAN_POINT ( 'NONE',  ( 0.0000000000000000000, -0.4921259842519690700, -0.08606412940963409400 ) ) ;
#241 = ORIENTED_EDGE ( 'NONE', *, *, #88, .T. ) ;
#242 = DIRECTION ( 'NONE',  ( 0.0000000000000000000, 1.000000000000000000, 3.122502256758249300E-016 ) ) ;
#243 = DIRECTION ( 'NONE',  ( 0.0000000000000000000, -1.000000000000000000, -3.122439624720927100E-016 ) ) ;
#244 = DIRECTION ( 'NONE',  ( 1.000000000000000000, 0.0000000000000000000, -0.0000000000000000000 ) ) ;
#245 = COORDINATED_UNIVERSAL_TIME_OFFSET ( 5, 0, .BEHIND. ) ;
#246 = EDGE_LOOP ( 'NONE', ( #282, #197, #287, #202 ) ) ;
#247 = CARTESIAN_POINT ( 'NONE',  ( 0.0000000000000000000, 0.5000000000000000000, 0.07819011366160209800 ) ) ;
#248 = PERSON ( 'UNSPECIFIED', 'UNSPECIFIED', 'UNSPECIFIED', ('UNSPECIFIED'), ('UNSPECIFIED'), ('UNSPECIFIED') ) ;
#249 = ORIENTED_EDGE ( 'NONE', *, *, #70, .F. ) ;
#250 = CARTESIAN_POINT ( 'NONE',  ( 6.123233995736766000E-017, -0.5000000000000000000, -0.08606412940963402400 ) ) ;
#251 = APPROVAL_STATUS ( 'not_yet_approved' ) ;
#252 = CC_DESIGN_APPROVAL ( #235, ( #222 ) ) ;
#253 = AXIS2_PLACEMENT_3D ( 'NONE', #219, #72, #242 ) ;
#254 = ORIENTED_EDGE ( 'NONE', *, *, #40, .F. ) ;
#255 = PRODUCT_DEFINITION_SHAPE ( 'NONE', 'NONE',  #222 ) ;
#256 = ADVANCED_FACE ( 'NONE', ( #135 ), #105, .T. ) ;
#257 = VERTEX_POINT ( 'NONE', #195 ) ;
#258 = LOCAL_TIME ( 10, 22, 17.00000000000000000, #67 ) ;
#259 = CARTESIAN_POINT ( 'NONE',  ( 0.0000000000000000000, -0.4921259842519690700, -0.08606412940963409400 ) ) ;
#260 = LINE ( 'NONE', #250, #160 ) ;
#261 = PERSON_AND_ORGANIZATION ( #248, #28 ) ;
#262 = DIRECTION ( 'NONE',  ( 0.0000000000000000000, 1.000000000000000000, 3.073328992872296400E-016 ) ) ;
#263 = CC_DESIGN_PERSON_AND_ORGANIZATION_ASSIGNMENT ( #47, #229, ( #222 ) ) ;
#264 = CIRCLE ( 'NONE', #278, 0.5000000000000000000 ) ;
#265 = AXIS2_PLACEMENT_3D ( 'NONE', #209, #62, #211 ) ;
#266 = CARTESIAN_POINT ( 'NONE',  ( 0.0000000000000000000, -1.653770342385125800E-017, 0.07819011366160201500 ) ) ;
#267 = DIRECTION ( 'NONE',  ( -0.0000000000000000000, 3.061515884555943100E-016, -1.000000000000000000 ) ) ;
#268 = ORIENTED_EDGE ( 'NONE', *, *, #184, .F. ) ;
#269 = EDGE_CURVE ( 'NONE', #169, #276, #80, .T. ) ;
#270 = CARTESIAN_POINT ( 'NONE',  ( 0.0000000000000000000, 0.0000000000000000000, 0.0000000000000000000 ) ) ;
#271 = DIRECTION ( 'NONE',  ( -1.224646799147353200E-016, 1.000000000000000000, 0.0000000000000000000 ) ) ;
#272 = LENGTH_MEASURE_WITH_UNIT ( LENGTH_MEASURE( 0.02539999999999999900 ), #177 );
#273 = PERSON_AND_ORGANIZATION ( #248, #28 ) ;
#274 = FACE_OUTER_BOUND ( 'NONE', #230, .T. ) ;
#275 = LINE ( 'NONE', #225, #187 ) ;
#276 = VERTEX_POINT ( 'NONE', #291 ) ;
#277 = CC_DESIGN_DATE_AND_TIME_ASSIGNMENT ( #239, #84, ( #222 ) ) ;
#278 = AXIS2_PLACEMENT_3D ( 'NONE', #120, #290, #145 ) ;
#279 = EDGE_CURVE ( 'NONE', #34, #276, #275, .T. ) ;
#280 = DIRECTION ( 'NONE',  ( 0.0000000000000000000, -3.061515884555945600E-016, 1.000000000000000000 ) ) ;
#281 = PERSON_AND_ORGANIZATION ( #248, #28 ) ;
#282 = ORIENTED_EDGE ( 'NONE', *, *, #152, .F. ) ;
#283 = DIRECTION ( 'NONE',  ( 0.0000000000000000000, -3.061515884555945600E-016, 1.000000000000000000 ) ) ;
#284 = PERSON_AND_ORGANIZATION_ROLE ( 'classification_officer' ) ;
#285 = EDGE_CURVE ( 'NONE', #77, #169, #299, .T. ) ;
#286 = CARTESIAN_POINT ( 'NONE',  ( 0.0000000000000000000, 0.4921358556527996000, 0.08560659841446932600 ) ) ;
#287 = ORIENTED_EDGE ( 'NONE', *, *, #269, .F. ) ;
#288 = SPHERICAL_SURFACE ( 'NONE', #60, 8.540944881889764400 ) ;
#289 = ORIENTED_EDGE ( 'NONE', *, *, #116, .T. ) ;
#290 = DIRECTION ( 'NONE',  ( -0.0000000000000000000, 3.061515884555673500E-016, -1.000000000000000000 ) ) ;
#291 = CARTESIAN_POINT ( 'NONE',  ( 6.123233995736766000E-017, -0.5000000000000000000, 0.07819011366160186200 ) ) ;
#292 = DIRECTION ( 'NONE',  ( 0.0000000000000000000, -1.000000000000000000, -3.073328992872296400E-016 ) ) ;
#293 = DIRECTION ( 'NONE',  ( 1.000000000000000000, 0.0000000000000000000, 0.0000000000000000000 ) ) ;
#294 = ORIENTED_EDGE ( 'NONE', *, *, #168, .F. ) ;
#295 = PERSON_AND_ORGANIZATION ( #248, #28 ) ;
#296 = VECTOR ( 'NONE', #20, 39.37007874015748100 ) ;
#297 = PRODUCT_DEFINITION_FORMATION_WITH_SPECIFIED_SOURCE ( 'ANY', '', #178, .NOT_KNOWN. ) ;
#298 = AXIS2_PLACEMENT_3D ( 'NONE', #223, #73, #243 ) ;
#299 = LINE ( 'NONE', #247, #170 ) ;
#300 = MANIFOLD_SOLID_BREP ( '20147-001-1-solid1', #129 ) ;
#301 = LOCAL_TIME ( 10, 22, 17.00000000000000000, #176 ) ;
#302 = EDGE_CURVE ( 'NONE', #257, #48, #130, .T. ) ;
#303 = LOCAL_TIME ( 10, 22, 17.00000000000000000, #245 ) ;
#304 = ADVANCED_FACE ( 'NONE', ( #27 ), #17, .T. ) ;
ENDSEC;
END-ISO-10303-21;
