ISO-10303-21;
HEADER;
FILE_DESCRIPTION (( 'STEP AP203' ),
    '1' );
FILE_NAME ('4302-E0W.STEP',
    '2015-05-29T14:17:36',
    ( 'admin' ),
    ( '' ),
    'SwSTEP 2.0',
    'SolidWorks 2014',
    '' );
FILE_SCHEMA (( 'CONFIG_CONTROL_DESIGN' ));
ENDSEC;

DATA;
#1 = ORIENTED_EDGE ( 'NONE', *, *, #2, .T. ) ;
#2 = EDGE_CURVE ( 'NONE', #300, #151, #261, .T. ) ;
#3 = APPROVAL_PERSON_ORGANIZATION ( #292, #194, #186 ) ;
#4 = CARTESIAN_POINT ( 'NONE',  ( -13.44999999999999900, 4.577117411813232500E-015, 37.24999999999999300 ) ) ;
#5 = EDGE_LOOP ( 'NONE', ( #230, #215, #166 ) ) ;
#6 = UNCERTAINTY_MEASURE_WITH_UNIT (LENGTH_MEASURE( 1.000000000000000100E-005 ), #74, 'distance_accuracy_value', 'NONE');
#7 = APPROVAL_PERSON_ORGANIZATION ( #276, #105, #28 ) ;
#8 = ORIENTED_EDGE ( 'NONE', *, *, #64, .F. ) ;
#9 = DIRECTION ( 'NONE',  ( 1.000000000000000000, 0.0000000000000000000, 0.0000000000000000000 ) ) ;
#10 = ADVANCED_FACE ( 'NONE', ( #147 ), #212, .F. ) ;
#11 = CARTESIAN_POINT ( 'NONE',  ( -13.44999999999999900, 0.0000000000000000000, 0.0000000000000000000 ) ) ;
#12 = VERTEX_POINT ( 'NONE', #187 ) ;
#13 = EDGE_LOOP ( 'NONE', ( #202, #1, #148, #8 ) ) ;
#14 =( GEOMETRIC_REPRESENTATION_CONTEXT ( 3 ) GLOBAL_UNCERTAINTY_ASSIGNED_CONTEXT ( ( #6 ) ) GLOBAL_UNIT_ASSIGNED_CONTEXT ( ( #74, #242, #293 ) ) REPRESENTATION_CONTEXT ( 'NONE', 'WORKASPACE' ) );
#15 = DIRECTION ( 'NONE',  ( 0.0000000000000000000, -1.224646799147353200E-016, 1.000000000000000000 ) ) ;
#16 = VERTEX_POINT ( 'NONE', #4 ) ;
#17 = FACE_OUTER_BOUND ( 'NONE', #125, .T. ) ;
#18 = CONICAL_SURFACE ( 'NONE', #72, 37.24999999999999300, 0.7853981633974760300 ) ;
#19 = DIRECTION ( 'NONE',  ( 0.0000000000000000000, 0.0000000000000000000, -1.000000000000000000 ) ) ;
#20 = EDGE_LOOP ( 'NONE', ( #34, #174, #114, #121 ) ) ;
#21 = DIRECTION ( 'NONE',  ( -1.000000000000000000, -0.0000000000000000000, -0.0000000000000000000 ) ) ;
#22 = CIRCLE ( 'NONE', #23, 37.39505865464163700 ) ;
#23 = AXIS2_PLACEMENT_3D ( 'NONE', #201, #198, #41 ) ;
#24 = ORIENTED_EDGE ( 'NONE', *, *, #158, .T. ) ;
#25 = AXIS2_PLACEMENT_3D ( 'NONE', #241, #278, #294 ) ;
#26 = CARTESIAN_POINT ( 'NONE',  ( 13.44999999999999900, 0.0000000000000000000, 0.0000000000000000000 ) ) ;
#27 = ORIENTED_EDGE ( 'NONE', *, *, #175, .T. ) ;
#28 = APPROVAL_ROLE ( '' ) ;
#29 = AXIS2_PLACEMENT_3D ( 'NONE', #169, #251, #289 ) ;
#30 = ADVANCED_FACE ( 'NONE', ( #273 ), #136, .T. ) ;
#31 = DIRECTION ( 'NONE',  ( -1.000000000000000000, -0.0000000000000000000, -0.0000000000000000000 ) ) ;
#32 = PRODUCT ( '4302-E0W', '4302-E0W', '', ( #191 ) ) ;
#33 = CARTESIAN_POINT ( 'NONE',  ( -13.44999999999999900, 4.592425496802575200E-015, -37.50000000000000700 ) ) ;
#34 = ORIENTED_EDGE ( 'NONE', *, *, #2, .F. ) ;
#35 = CALENDAR_DATE ( 2015, 29, 5 ) ;
#36 = AXIS2_PLACEMENT_3D ( 'NONE', #63, #288, #149 ) ;
#37 = CC_DESIGN_PERSON_AND_ORGANIZATION_ASSIGNMENT ( #89, #150, ( #32 ) ) ;
#38 = EDGE_LOOP ( 'NONE', ( #42, #107, #77, #240 ) ) ;
#39 = VECTOR ( 'NONE', #185, 1000.000000000000000 ) ;
#40 = CARTESIAN_POINT ( 'NONE',  ( 0.0000000000000000000, 0.0000000000000000000, 0.0000000000000000000 ) ) ;
#41 = DIRECTION ( 'NONE',  ( 0.0000000000000000000, 0.0000000000000000000, 1.000000000000000000 ) ) ;
#42 = ORIENTED_EDGE ( 'NONE', *, *, #50, .F. ) ;
#43 = EDGE_LOOP ( 'NONE', ( #223, #197, #83, #217 ) ) ;
#44 = DIRECTION ( 'NONE',  ( 0.0000000000000000000, 0.0000000000000000000, 1.000000000000000000 ) ) ;
#45 = DIRECTION ( 'NONE',  ( -1.000000000000000000, -0.0000000000000000000, -0.0000000000000000000 ) ) ;
#46 = DATE_TIME_ROLE ( 'classification_date' ) ;
#47 = PERSON_AND_ORGANIZATION_ROLE ( 'design_supplier' ) ;
#48 = VERTEX_POINT ( 'NONE', #102 ) ;
#49 = DESIGN_CONTEXT ( 'detailed design', #172, 'design' ) ;
#50 = EDGE_CURVE ( 'NONE', #282, #48, #98, .T. ) ;
#51 = LINE ( 'NONE', #60, #275 ) ;
#52 = VECTOR ( 'NONE', #286, 1000.000000000000000 ) ;
#53 = PRODUCT_DEFINITION_SHAPE ( 'NONE', 'NONE',  #167 ) ;
#54 = CARTESIAN_POINT ( 'NONE',  ( -10.69999999999997300, 0.0000000000000000000, 0.0000000000000000000 ) ) ;
#55 = EDGE_CURVE ( 'NONE', #156, #48, #298, .T. ) ;
#56 = CARTESIAN_POINT ( 'NONE',  ( -13.44999999999999900, 0.0000000000000000000, 37.50000000000000700 ) ) ;
#57 = ORIENTED_EDGE ( 'NONE', *, *, #244, .F. ) ;
#58 = AXIS2_PLACEMENT_3D ( 'NONE', #90, #216, #272 ) ;
#59 = CC_DESIGN_PERSON_AND_ORGANIZATION_ASSIGNMENT ( #75, #47, ( #297 ) ) ;
#60 = CARTESIAN_POINT ( 'NONE',  ( -13.44999999999999900, 4.561809326823889800E-015, 37.24999999999999300 ) ) ;
#61 = CYLINDRICAL_SURFACE ( 'NONE', #130, 37.50000000000000700 ) ;
#62 = ADVANCED_FACE ( 'NONE', ( #80 ), #61, .T. ) ;
#63 = CARTESIAN_POINT ( 'NONE',  ( -13.19999999999999900, 0.0000000000000000000, 0.0000000000000000000 ) ) ;
#64 = EDGE_CURVE ( 'NONE', #12, #210, #112, .T. ) ;
#65 = CARTESIAN_POINT ( 'NONE',  ( -10.69999999999997300, 4.592425496802575200E-015, -37.50000000000000700 ) ) ;
#66 = DIRECTION ( 'NONE',  ( 0.0000000000000000000, 0.0000000000000000000, 1.000000000000000000 ) ) ;
#67 = CARTESIAN_POINT ( 'NONE',  ( -10.22674760764325600, 4.579573888533440200E-015, -37.39505865464163000 ) ) ;
#68 = EDGE_CURVE ( 'NONE', #48, #12, #78, .T. ) ;
#69 = CC_DESIGN_PERSON_AND_ORGANIZATION_ASSIGNMENT ( #248, #153, ( #154 ) ) ;
#70 = DIRECTION ( 'NONE',  ( 1.000000000000000000, 0.0000000000000000000, 0.0000000000000000000 ) ) ;
#71 = ORIENTED_EDGE ( 'NONE', *, *, #256, .F. ) ;
#72 = AXIS2_PLACEMENT_3D ( 'NONE', #115, #70, #183 ) ;
#73 = AXIS2_PLACEMENT_3D ( 'NONE', #138, #9, #19 ) ;
#74 =( LENGTH_UNIT ( ) NAMED_UNIT ( * ) SI_UNIT ( .MILLI., .METRE. ) );
#75 = PERSON_AND_ORGANIZATION ( #283, #163 ) ;
#76 = CARTESIAN_POINT ( 'NONE',  ( -13.44999999999999900, 0.0000000000000000000, 0.0000000000000000000 ) ) ;
#77 = ORIENTED_EDGE ( 'NONE', *, *, #262, .F. ) ;
#78 = LINE ( 'NONE', #86, #195 ) ;
#79 = EDGE_CURVE ( 'NONE', #282, #300, #157, .T. ) ;
#80 = FACE_OUTER_BOUND ( 'NONE', #13, .T. ) ;
#81 = DIRECTION ( 'NONE',  ( 0.0000000000000000000, 0.0000000000000000000, 1.000000000000000000 ) ) ;
#82 = EDGE_CURVE ( 'NONE', #48, #282, #22, .T. ) ;
#83 = ORIENTED_EDGE ( 'NONE', *, *, #164, .F. ) ;
#84 = DIRECTION ( 'NONE',  ( 1.000000000000000000, 0.0000000000000000000, 0.0000000000000000000 ) ) ;
#85 = AXIS2_PLACEMENT_3D ( 'NONE', #11, #21, #259 ) ;
#86 = CARTESIAN_POINT ( 'NONE',  ( -10.69999999999997300, 0.0000000000000000000, 37.50000000000000700 ) ) ;
#87 = ORIENTED_EDGE ( 'NONE', *, *, #68, .T. ) ;
#88 = APPROVAL_STATUS ( 'not_yet_approved' ) ;
#89 = PERSON_AND_ORGANIZATION ( #283, #163 ) ;
#90 = CARTESIAN_POINT ( 'NONE',  ( -27.94999542466652900, 0.0000000000000000000, -0.01946375065413688500 ) ) ;
#91 = SHAPE_DEFINITION_REPRESENTATION ( #53, #179 ) ;
#92 = ORIENTED_EDGE ( 'NONE', *, *, #171, .T. ) ;
#93 = CC_DESIGN_APPROVAL ( #140, ( #167 ) ) ;
#94 = CIRCLE ( 'NONE', #296, 37.24999999999999300 ) ;
#95 = AXIS2_PLACEMENT_3D ( 'NONE', #40, #271, #200 ) ;
#96 = DIRECTION ( 'NONE',  ( -1.000000000000000000, -0.0000000000000000000, -0.0000000000000000000 ) ) ;
#97 = APPLICATION_CONTEXT ( 'configuration controlled 3d designs of mechanical parts and assemblies' ) ;
#98 = CIRCLE ( 'NONE', #146, 37.39505865464163700 ) ;
#99 = ORIENTED_EDGE ( 'NONE', *, *, #79, .F. ) ;
#100 = LOCAL_TIME ( 10, 17, 36.00000000000000000, #263 ) ;
#101 = CONICAL_SURFACE ( 'NONE', #29, 37.50000000000000700, 0.2182141223778218700 ) ;
#102 = CARTESIAN_POINT ( 'NONE',  ( -10.22674760764325600, 0.0000000000000000000, 37.39505865464163000 ) ) ;
#103 = PERSON_AND_ORGANIZATION ( #283, #163 ) ;
#104 = CARTESIAN_POINT ( 'NONE',  ( -10.69999999999997300, 0.0000000000000000000, 0.0000000000000000000 ) ) ;
#105 = APPROVAL ( #88, 'UNSPECIFIED' ) ;
#106 = CIRCLE ( 'NONE', #25, 37.50000000000000700 ) ;
#107 = ORIENTED_EDGE ( 'NONE', *, *, #79, .T. ) ;
#108 = APPROVAL_STATUS ( 'not_yet_approved' ) ;
#109 = ADVANCED_FACE ( 'NONE', ( #17 ), #18, .T. ) ;
#110 = APPROVAL_DATE_TIME ( #219, #105 ) ;
#111 = SECURITY_CLASSIFICATION_LEVEL ( 'unclassified' ) ;
#112 = LINE ( 'NONE', #56, #123 ) ;
#113 = CIRCLE ( 'NONE', #229, 37.50000000000000700 ) ;
#114 = ORIENTED_EDGE ( 'NONE', *, *, #64, .T. ) ;
#115 = CARTESIAN_POINT ( 'NONE',  ( -13.44999999999999900, 0.0000000000000000000, 0.0000000000000000000 ) ) ;
#116 = APPROVAL_DATE_TIME ( #220, #194 ) ;
#117 = MANIFOLD_SOLID_BREP ( '4302-001-1-solid1', #266 ) ;
#118 = CC_DESIGN_DATE_AND_TIME_ASSIGNMENT ( #247, #46, ( #154 ) ) ;
#119 = LINE ( 'NONE', #277, #52 ) ;
#120 = CARTESIAN_POINT ( 'NONE',  ( -13.44999999999999900, 0.0000000000000000000, -37.24999999999999300 ) ) ;
#121 = ORIENTED_EDGE ( 'NONE', *, *, #244, .T. ) ;
#122 = COORDINATED_UNIVERSAL_TIME_OFFSET ( 5, 0, .BEHIND. ) ;
#123 = VECTOR ( 'NONE', #228, 1000.000000000000000 ) ;
#124 = DIRECTION ( 'NONE',  ( 0.0000000000000000000, 0.0000000000000000000, -1.000000000000000000 ) ) ;
#125 = EDGE_LOOP ( 'NONE', ( #203, #180, #27, #57 ) ) ;
#126 = AXIS2_PLACEMENT_3D ( 'NONE', #226, #176, #15 ) ;
#127 = APPLICATION_PROTOCOL_DEFINITION ( 'international standard', 'config_control_design', 1994, #172 ) ;
#128 = CIRCLE ( 'NONE', #192, 37.50000000000000700 ) ;
#129 = CARTESIAN_POINT ( 'NONE',  ( -27.94999542466652900, 0.0000000000000000000, 0.0000000000000000000 ) ) ;
#130 = AXIS2_PLACEMENT_3D ( 'NONE', #285, #31, #81 ) ;
#131 = CALENDAR_DATE ( 2015, 29, 5 ) ;
#132 = DIRECTION ( 'NONE',  ( 0.0000000000000000000, 0.0000000000000000000, -1.000000000000000000 ) ) ;
#133 = CIRCLE ( 'NONE', #126, 41.39999999999999100 ) ;
#134 = FACE_OUTER_BOUND ( 'NONE', #38, .T. ) ;
#135 = APPROVAL_ROLE ( '' ) ;
#136 = CYLINDRICAL_SURFACE ( 'NONE', #85, 37.50000000000000700 ) ;
#137 = DIRECTION ( 'NONE',  ( -1.000000000000000000, -0.0000000000000000000, -0.0000000000000000000 ) ) ;
#138 = CARTESIAN_POINT ( 'NONE',  ( -13.44999999999999900, 0.0000000000000000000, 0.0000000000000000000 ) ) ;
#139 = AXIS2_PLACEMENT_3D ( 'NONE', #104, #96, #249 ) ;
#140 = APPROVAL ( #239, 'UNSPECIFIED' ) ;
#141 = DIRECTION ( 'NONE',  ( 1.000000000000000000, 0.0000000000000000000, 0.0000000000000000000 ) ) ;
#142 = EDGE_LOOP ( 'NONE', ( #161, #24, #168 ) ) ;
#143 = CIRCLE ( 'NONE', #36, 37.50000000000000700 ) ;
#144 = CARTESIAN_POINT ( 'NONE',  ( -27.94999542466652900, 0.0000000000000000000, 0.0000000000000000000 ) ) ;
#145 = PERSON_AND_ORGANIZATION_ROLE ( 'creator' ) ;
#146 = AXIS2_PLACEMENT_3D ( 'NONE', #224, #141, #152 ) ;
#147 = FACE_OUTER_BOUND ( 'NONE', #234, .T. ) ;
#148 = ORIENTED_EDGE ( 'NONE', *, *, #164, .T. ) ;
#149 = DIRECTION ( 'NONE',  ( 0.0000000000000000000, 0.0000000000000000000, -1.000000000000000000 ) ) ;
#150 = PERSON_AND_ORGANIZATION_ROLE ( 'design_owner' ) ;
#151 = VERTEX_POINT ( 'NONE', #204 ) ;
#152 = DIRECTION ( 'NONE',  ( 0.0000000000000000000, 0.0000000000000000000, 1.000000000000000000 ) ) ;
#153 = PERSON_AND_ORGANIZATION_ROLE ( 'classification_officer' ) ;
#154 = SECURITY_CLASSIFICATION ( '', '', #111 ) ;
#155 = FACE_OUTER_BOUND ( 'NONE', #43, .T. ) ;
#156 = VERTEX_POINT ( 'NONE', #26 ) ;
#157 = LINE ( 'NONE', #257, #231 ) ;
#158 = EDGE_CURVE ( 'NONE', #156, #282, #133, .T. ) ;
#159 = CC_DESIGN_PERSON_AND_ORGANIZATION_ASSIGNMENT ( #254, #145, ( #297 ) ) ;
#160 = ADVANCED_FACE ( 'NONE', ( #181 ), #252, .T. ) ;
#161 = ORIENTED_EDGE ( 'NONE', *, *, #55, .F. ) ;
#162 = FACE_OUTER_BOUND ( 'NONE', #193, .T. ) ;
#163 = ORGANIZATION ( 'UNSPECIFIED', 'UNSPECIFIED', '' ) ;
#164 = EDGE_CURVE ( 'NONE', #151, #210, #113, .T. ) ;
#165 = CARTESIAN_POINT ( 'NONE',  ( -13.44999999999999900, 0.0000000000000000000, 0.0000000000000000000 ) ) ;
#166 = ORIENTED_EDGE ( 'NONE', *, *, #82, .T. ) ;
#167 = PRODUCT_DEFINITION ( 'UNKNOWN', '', #297, #49 ) ;
#168 = ORIENTED_EDGE ( 'NONE', *, *, #50, .T. ) ;
#169 = CARTESIAN_POINT ( 'NONE',  ( -10.69999999999997300, 0.0000000000000000000, 0.0000000000000000000 ) ) ;
#170 = CALENDAR_DATE ( 2015, 29, 5 ) ;
#171 = EDGE_CURVE ( 'NONE', #281, #16, #173, .T. ) ;
#172 = APPLICATION_CONTEXT ( 'configuration controlled 3d designs of mechanical parts and assemblies' ) ;
#173 = CIRCLE ( 'NONE', #208, 37.24999999999999300 ) ;
#174 = ORIENTED_EDGE ( 'NONE', *, *, #256, .T. ) ;
#175 = EDGE_CURVE ( 'NONE', #281, #151, #119, .T. ) ;
#176 = DIRECTION ( 'NONE',  ( -0.0000000000000000000, 1.000000000000000000, 1.224646799147353200E-016 ) ) ;
#177 = ADVANCED_FACE ( 'NONE', ( #134 ), #101, .T. ) ;
#178 = CC_DESIGN_SECURITY_CLASSIFICATION ( #154, ( #297 ) ) ;
#179 = ADVANCED_BREP_SHAPE_REPRESENTATION ( '4302-E0W', ( #117, #95 ), #14 ) ;
#180 = ORIENTED_EDGE ( 'NONE', *, *, #171, .F. ) ;
#181 = FACE_OUTER_BOUND ( 'NONE', #5, .T. ) ;
#182 = AXIS2_PLACEMENT_3D ( 'NONE', #165, #246, #124 ) ;
#183 = DIRECTION ( 'NONE',  ( 0.0000000000000000000, 0.0000000000000000000, -1.000000000000000000 ) ) ;
#184 = APPROVAL_DATE_TIME ( #267, #140 ) ;
#185 = DIRECTION ( 'NONE',  ( -1.000000000000000000, -0.0000000000000000000, -0.0000000000000000000 ) ) ;
#186 = APPROVAL_ROLE ( '' ) ;
#187 = CARTESIAN_POINT ( 'NONE',  ( -10.69999999999997300, 0.0000000000000000000, 37.50000000000000700 ) ) ;
#188 = DIRECTION ( 'NONE',  ( -1.000000000000000000, -0.0000000000000000000, -0.0000000000000000000 ) ) ;
#189 = DATE_TIME_ROLE ( 'creation_date' ) ;
#190 = PERSON_AND_ORGANIZATION ( #283, #163 ) ;
#191 = MECHANICAL_CONTEXT ( 'NONE', #97, 'mechanical' ) ;
#192 = AXIS2_PLACEMENT_3D ( 'NONE', #54, #188, #66 ) ;
#193 = EDGE_LOOP ( 'NONE', ( #99, #287, #87, #71 ) ) ;
#194 = APPROVAL ( #108, 'UNSPECIFIED' ) ;
#195 = VECTOR ( 'NONE', #243, 1000.000000000000100 ) ;
#196 = LOCAL_TIME ( 10, 17, 36.00000000000000000, #270 ) ;
#197 = ORIENTED_EDGE ( 'NONE', *, *, #237, .T. ) ;
#198 = DIRECTION ( 'NONE',  ( 1.000000000000000000, 0.0000000000000000000, 0.0000000000000000000 ) ) ;
#199 = ADVANCED_FACE ( 'NONE', ( #155 ), #268, .T. ) ;
#200 = DIRECTION ( 'NONE',  ( 1.000000000000000000, 0.0000000000000000000, 0.0000000000000000000 ) ) ;
#201 = CARTESIAN_POINT ( 'NONE',  ( -10.22674760764325600, 0.0000000000000000000, 0.0000000000000000000 ) ) ;
#202 = ORIENTED_EDGE ( 'NONE', *, *, #262, .T. ) ;
#203 = ORIENTED_EDGE ( 'NONE', *, *, #237, .F. ) ;
#204 = CARTESIAN_POINT ( 'NONE',  ( -13.19999999999999900, 4.592425496802575200E-015, -37.50000000000000700 ) ) ;
#205 = ADVANCED_FACE ( 'NONE', ( #162 ), #280, .T. ) ;
#206 = DATE_AND_TIME ( #35, #196 ) ;
#207 = COORDINATED_UNIVERSAL_TIME_OFFSET ( 5, 0, .BEHIND. ) ;
#208 = AXIS2_PLACEMENT_3D ( 'NONE', #295, #221, #269 ) ;
#209 = LOCAL_TIME ( 10, 17, 36.00000000000000000, #236 ) ;
#210 = VERTEX_POINT ( 'NONE', #218 ) ;
#211 = CC_DESIGN_APPROVAL ( #105, ( #154 ) ) ;
#212 = PLANE ( 'NONE',  #182 ) ;
#213 = LOCAL_TIME ( 10, 17, 36.00000000000000000, #207 ) ;
#214 = DIRECTION ( 'NONE',  ( 0.0000000000000000000, 0.0000000000000000000, 1.000000000000000000 ) ) ;
#215 = ORIENTED_EDGE ( 'NONE', *, *, #55, .T. ) ;
#216 = DIRECTION ( 'NONE',  ( 0.0000000000000000000, -1.000000000000000000, 0.0000000000000000000 ) ) ;
#217 = ORIENTED_EDGE ( 'NONE', *, *, #175, .F. ) ;
#218 = CARTESIAN_POINT ( 'NONE',  ( -13.19999999999999900, 0.0000000000000000000, 37.50000000000000700 ) ) ;
#219 = DATE_AND_TIME ( #131, #213 ) ;
#220 = DATE_AND_TIME ( #170, #100 ) ;
#221 = DIRECTION ( 'NONE',  ( -1.000000000000000000, -0.0000000000000000000, -0.0000000000000000000 ) ) ;
#222 = AXIS2_PLACEMENT_3D ( 'NONE', #129, #137, #44 ) ;
#223 = ORIENTED_EDGE ( 'NONE', *, *, #258, .F. ) ;
#224 = CARTESIAN_POINT ( 'NONE',  ( -10.22674760764325600, 0.0000000000000000000, 0.0000000000000000000 ) ) ;
#225 = APPROVAL_PERSON_ORGANIZATION ( #103, #140, #135 ) ;
#226 = CARTESIAN_POINT ( 'NONE',  ( -27.94999542466652900, -2.383621993799093600E-018, 0.01946375065413688500 ) ) ;
#227 = PERSON_AND_ORGANIZATION_ROLE ( 'creator' ) ;
#228 = DIRECTION ( 'NONE',  ( -1.000000000000000000, -0.0000000000000000000, -0.0000000000000000000 ) ) ;
#229 = AXIS2_PLACEMENT_3D ( 'NONE', #290, #84, #279 ) ;
#230 = ORIENTED_EDGE ( 'NONE', *, *, #158, .F. ) ;
#231 = VECTOR ( 'NONE', #299, 1000.000000000000100 ) ;
#232 = ADVANCED_FACE ( 'NONE', ( #264 ), #233, .T. ) ;
#233 = TOROIDAL_SURFACE ( 'NONE', #250, -0.01946375065413688500, 41.39999999999999100 ) ;
#234 = EDGE_LOOP ( 'NONE', ( #92, #255 ) ) ;
#235 = CALENDAR_DATE ( 2015, 29, 5 ) ;
#236 = COORDINATED_UNIVERSAL_TIME_OFFSET ( 5, 0, .BEHIND. ) ;
#237 = EDGE_CURVE ( 'NONE', #16, #210, #51, .T. ) ;
#238 = CC_DESIGN_DATE_AND_TIME_ASSIGNMENT ( #206, #189, ( #167 ) ) ;
#239 = APPROVAL_STATUS ( 'not_yet_approved' ) ;
#240 = ORIENTED_EDGE ( 'NONE', *, *, #68, .F. ) ;
#241 = CARTESIAN_POINT ( 'NONE',  ( -10.69999999999997300, 0.0000000000000000000, 0.0000000000000000000 ) ) ;
#242 =( NAMED_UNIT ( * ) PLANE_ANGLE_UNIT ( ) SI_UNIT ( $, .RADIAN. ) );
#243 = DIRECTION ( 'NONE',  ( -0.9762856242806113900, 0.0000000000000000000, 0.2164864425847883300 ) ) ;
#244 = EDGE_CURVE ( 'NONE', #210, #151, #143, .T. ) ;
#245 = PRODUCT_RELATED_PRODUCT_CATEGORY ( 'detail', '', ( #32 ) ) ;
#246 = DIRECTION ( 'NONE',  ( 1.000000000000000000, 0.0000000000000000000, 0.0000000000000000000 ) ) ;
#247 = DATE_AND_TIME ( #235, #209 ) ;
#248 = PERSON_AND_ORGANIZATION ( #283, #163 ) ;
#249 = DIRECTION ( 'NONE',  ( 0.0000000000000000000, 0.0000000000000000000, 1.000000000000000000 ) ) ;
#250 = AXIS2_PLACEMENT_3D ( 'NONE', #144, #301, #214 ) ;
#251 = DIRECTION ( 'NONE',  ( -1.000000000000000000, -0.0000000000000000000, -0.0000000000000000000 ) ) ;
#252 = TOROIDAL_SURFACE ( 'NONE', #222, -0.01946375065413688500, 41.39999999999999100 ) ;
#253 = DIRECTION ( 'NONE',  ( 0.7071067811865279200, 8.659560562355173200E-017, 0.7071067811865671100 ) ) ;
#254 = PERSON_AND_ORGANIZATION ( #283, #163 ) ;
#255 = ORIENTED_EDGE ( 'NONE', *, *, #258, .T. ) ;
#256 = EDGE_CURVE ( 'NONE', #300, #12, #128, .T. ) ;
#257 = CARTESIAN_POINT ( 'NONE',  ( -10.69999999999997300, 4.592425496802575200E-015, -37.50000000000000700 ) ) ;
#258 = EDGE_CURVE ( 'NONE', #16, #281, #94, .T. ) ;
#259 = DIRECTION ( 'NONE',  ( 0.0000000000000000000, 0.0000000000000000000, 1.000000000000000000 ) ) ;
#260 = CALENDAR_DATE ( 2015, 29, 5 ) ;
#261 = LINE ( 'NONE', #33, #39 ) ;
#262 = EDGE_CURVE ( 'NONE', #12, #300, #106, .T. ) ;
#263 = COORDINATED_UNIVERSAL_TIME_OFFSET ( 5, 0, .BEHIND. ) ;
#264 = FACE_OUTER_BOUND ( 'NONE', #142, .T. ) ;
#265 = LOCAL_TIME ( 10, 17, 36.00000000000000000, #122 ) ;
#266 = CLOSED_SHELL ( 'NONE', ( #199, #177, #232, #62, #10, #30, #160, #205, #109 ) ) ;
#267 = DATE_AND_TIME ( #260, #265 ) ;
#268 = CONICAL_SURFACE ( 'NONE', #73, 37.24999999999999300, 0.7853981633974760300 ) ;
#269 = DIRECTION ( 'NONE',  ( 0.0000000000000000000, 0.0000000000000000000, -1.000000000000000000 ) ) ;
#270 = COORDINATED_UNIVERSAL_TIME_OFFSET ( 5, 0, .BEHIND. ) ;
#271 = DIRECTION ( 'NONE',  ( 0.0000000000000000000, 0.0000000000000000000, 1.000000000000000000 ) ) ;
#272 = DIRECTION ( 'NONE',  ( 0.0000000000000000000, 0.0000000000000000000, -1.000000000000000000 ) ) ;
#273 = FACE_OUTER_BOUND ( 'NONE', #20, .T. ) ;
#274 = CC_DESIGN_PERSON_AND_ORGANIZATION_ASSIGNMENT ( #190, #227, ( #167 ) ) ;
#275 = VECTOR ( 'NONE', #253, 1000.000000000000000 ) ;
#276 = PERSON_AND_ORGANIZATION ( #283, #163 ) ;
#277 = CARTESIAN_POINT ( 'NONE',  ( -13.44999999999999900, 0.0000000000000000000, -37.24999999999999300 ) ) ;
#278 = DIRECTION ( 'NONE',  ( -1.000000000000000000, -0.0000000000000000000, -0.0000000000000000000 ) ) ;
#279 = DIRECTION ( 'NONE',  ( 0.0000000000000000000, 0.0000000000000000000, -1.000000000000000000 ) ) ;
#280 = CONICAL_SURFACE ( 'NONE', #139, 37.50000000000000700, 0.2182141223778218700 ) ;
#281 = VERTEX_POINT ( 'NONE', #120 ) ;
#282 = VERTEX_POINT ( 'NONE', #67 ) ;
#283 = PERSON ( 'UNSPECIFIED', 'UNSPECIFIED', 'UNSPECIFIED', ('UNSPECIFIED'), ('UNSPECIFIED'), ('UNSPECIFIED') ) ;
#284 = APPLICATION_PROTOCOL_DEFINITION ( 'international standard', 'config_control_design', 1994, #97 ) ;
#285 = CARTESIAN_POINT ( 'NONE',  ( -13.44999999999999900, 0.0000000000000000000, 0.0000000000000000000 ) ) ;
#286 = DIRECTION ( 'NONE',  ( 0.7071067811865279200, 0.0000000000000000000, -0.7071067811865671100 ) ) ;
#287 = ORIENTED_EDGE ( 'NONE', *, *, #82, .F. ) ;
#288 = DIRECTION ( 'NONE',  ( 1.000000000000000000, 0.0000000000000000000, 0.0000000000000000000 ) ) ;
#289 = DIRECTION ( 'NONE',  ( 0.0000000000000000000, 0.0000000000000000000, 1.000000000000000000 ) ) ;
#290 = CARTESIAN_POINT ( 'NONE',  ( -13.19999999999999900, 0.0000000000000000000, 0.0000000000000000000 ) ) ;
#291 = CC_DESIGN_APPROVAL ( #194, ( #297 ) ) ;
#292 = PERSON_AND_ORGANIZATION ( #283, #163 ) ;
#293 =( NAMED_UNIT ( * ) SI_UNIT ( $, .STERADIAN. ) SOLID_ANGLE_UNIT ( ) );
#294 = DIRECTION ( 'NONE',  ( 0.0000000000000000000, 0.0000000000000000000, 1.000000000000000000 ) ) ;
#295 = CARTESIAN_POINT ( 'NONE',  ( -13.44999999999999900, 0.0000000000000000000, 0.0000000000000000000 ) ) ;
#296 = AXIS2_PLACEMENT_3D ( 'NONE', #76, #45, #132 ) ;
#297 = PRODUCT_DEFINITION_FORMATION_WITH_SPECIFIED_SOURCE ( 'ANY', '', #32, .NOT_KNOWN. ) ;
#298 = CIRCLE ( 'NONE', #58, 41.39999999999999100 ) ;
#299 = DIRECTION ( 'NONE',  ( -0.9762856242806113900, 2.651194289702583000E-017, -0.2164864425847883300 ) ) ;
#300 = VERTEX_POINT ( 'NONE', #65 ) ;
#301 = DIRECTION ( 'NONE',  ( -1.000000000000000000, -0.0000000000000000000, -0.0000000000000000000 ) ) ;
ENDSEC;
END-ISO-10303-21;
