ISO-10303-21;
HEADER;
FILE_DESCRIPTION (( 'STEP AP214' ),
    '1' );
FILE_NAME ('PKDEP4.STEP',
    '2015-01-14T07:27:50',
    ( '' ),
    ( '' ),
    'SwSTEP 2.0',
    'SolidWorks 2012',
    '' );
FILE_SCHEMA (( 'AUTOMOTIVE_DESIGN' ));
ENDSEC;

DATA;
#1 =( GEOMETRIC_REPRESENTATION_CONTEXT ( 3 ) GLOBAL_UNCERTAINTY_ASSIGNED_CONTEXT ( ( #173 ) ) GLOBAL_UNIT_ASSIGNED_CONTEXT ( ( #229, #200, #201 ) ) REPRESENTATION_CONTEXT ( 'NONE', 'WORKASPACE' ) );
#2 = STYLED_ITEM ( 'NONE', ( #86 ), #288 ) ;
#3 = AXIS2_PLACEMENT_3D ( 'NONE', #197, #191, #198 ) ;
#4 = PRESENTATION_LAYER_ASSIGNMENT (  '', '', ( #2 ) ) ;
#5 = MECHANICAL_DESIGN_GEOMETRIC_PRESENTATION_REPRESENTATION (  '', ( #2 ), #6 ) ;
#6 =( GEOMETRIC_REPRESENTATION_CONTEXT ( 3 ) GLOBAL_UNCERTAINTY_ASSIGNED_CONTEXT ( ( #170 ) ) GLOBAL_UNIT_ASSIGNED_CONTEXT ( ( #240, #199, #202 ) ) REPRESENTATION_CONTEXT ( 'NONE', 'WORKASPACE' ) );
#7 = STYLED_ITEM ( 'NONE', ( #28 ), #289 ) ;
#8 = AXIS2_PLACEMENT_3D ( 'NONE', #252, #253, #250 ) ;
#9 = PRESENTATION_LAYER_ASSIGNMENT (  '', '', ( #7 ) ) ;
#10 = MECHANICAL_DESIGN_GEOMETRIC_PRESENTATION_REPRESENTATION (  '', ( #7 ), #11 ) ;
#11 =( GEOMETRIC_REPRESENTATION_CONTEXT ( 3 ) GLOBAL_UNCERTAINTY_ASSIGNED_CONTEXT ( ( #171 ) ) GLOBAL_UNIT_ASSIGNED_CONTEXT ( ( #235, #234, #233 ) ) REPRESENTATION_CONTEXT ( 'NONE', 'WORKASPACE' ) );
#12 = STYLED_ITEM ( 'NONE', ( #32 ), #290 ) ;
#13 = AXIS2_PLACEMENT_3D ( 'NONE', #232, #231, #242 ) ;
#14 = PRESENTATION_LAYER_ASSIGNMENT (  '', '', ( #12 ) ) ;
#15 = MECHANICAL_DESIGN_GEOMETRIC_PRESENTATION_REPRESENTATION (  '', ( #12 ), #16 ) ;
#16 =( GEOMETRIC_REPRESENTATION_CONTEXT ( 3 ) GLOBAL_UNCERTAINTY_ASSIGNED_CONTEXT ( ( #167 ) ) GLOBAL_UNIT_ASSIGNED_CONTEXT ( ( #254, #255, #256 ) ) REPRESENTATION_CONTEXT ( 'NONE', 'WORKASPACE' ) );
#17 = STYLED_ITEM ( 'NONE', ( #36 ), #291 ) ;
#18 = AXIS2_PLACEMENT_3D ( 'NONE', #257, #258, #259 ) ;
#19 = PRESENTATION_LAYER_ASSIGNMENT (  '', '', ( #17 ) ) ;
#20 = MECHANICAL_DESIGN_GEOMETRIC_PRESENTATION_REPRESENTATION (  '', ( #17 ), #21 ) ;
#21 =( GEOMETRIC_REPRESENTATION_CONTEXT ( 3 ) GLOBAL_UNCERTAINTY_ASSIGNED_CONTEXT ( ( #168 ) ) GLOBAL_UNIT_ASSIGNED_CONTEXT ( ( #265, #266, #270 ) ) REPRESENTATION_CONTEXT ( 'NONE', 'WORKASPACE' ) );
#22 = STYLED_ITEM ( 'NONE', ( #40 ), #292 ) ;
#23 = AXIS2_PLACEMENT_3D ( 'NONE', #271, #272, #273 ) ;
#24 = PRESENTATION_LAYER_ASSIGNMENT (  '', '', ( #22 ) ) ;
#25 = MECHANICAL_DESIGN_GEOMETRIC_PRESENTATION_REPRESENTATION (  '', ( #22 ), #26 ) ;
#26 =( GEOMETRIC_REPRESENTATION_CONTEXT ( 3 ) GLOBAL_UNCERTAINTY_ASSIGNED_CONTEXT ( ( #174 ) ) GLOBAL_UNIT_ASSIGNED_CONTEXT ( ( #204, #216, #215 ) ) REPRESENTATION_CONTEXT ( 'NONE', 'WORKASPACE' ) );
#27 = FACE_OUTER_BOUND ( 'NONE', #126, .T. ) ;
#28 = PRESENTATION_STYLE_ASSIGNMENT (( #236 ) ) ;
#29 = SURFACE_STYLE_FILL_AREA ( #248 ) ;
#30 = COLOUR_RGB ( '',1.000000000000000000, 1.000000000000000000, 1.000000000000000000 ) ;
#31 = FACE_OUTER_BOUND ( 'NONE', #102, .T. ) ;
#32 = PRESENTATION_STYLE_ASSIGNMENT (( #246 ) ) ;
#33 = SURFACE_STYLE_FILL_AREA ( #244 ) ;
#34 = COLOUR_RGB ( '',1.000000000000000000, 1.000000000000000000, 1.000000000000000000 ) ;
#35 = FACE_OUTER_BOUND ( 'NONE', #123, .T. ) ;
#36 = PRESENTATION_STYLE_ASSIGNMENT (( #263 ) ) ;
#37 = SURFACE_STYLE_FILL_AREA ( #262 ) ;
#38 = COLOUR_RGB ( '',1.000000000000000000, 1.000000000000000000, 1.000000000000000000 ) ;
#39 = FACE_OUTER_BOUND ( 'NONE', #103, .T. ) ;
#40 = PRESENTATION_STYLE_ASSIGNMENT (( #205 ) ) ;
#41 = SURFACE_STYLE_FILL_AREA ( #276 ) ;
#42 = COLOUR_RGB ( '',1.000000000000000000, 1.000000000000000000, 1.000000000000000000 ) ;
#43 = SURFACE_STYLE_FILL_AREA ( #213 ) ;
#44 = COLOUR_RGB ( '',1.000000000000000000, 0.5019607843137254800, 0.5019607843137254800 ) ;
#45 = PRESENTATION_STYLE_ASSIGNMENT (( #222 ) ) ;
#46 = SHAPE_DEFINITION_REPRESENTATION ( #165, #176 ) ;
#47 = DIRECTION ( 'NONE',  ( -8.673617379884035500E-017, -0.0000000000000000000, -1.000000000000000000 ) ) ;
#48 = DIRECTION ( 'NONE',  ( -0.0000000000000000000, -1.000000000000000000, -0.0000000000000000000 ) ) ;
#49 = DIRECTION ( 'NONE',  ( -1.000000000000000000, -0.0000000000000000000, 8.673617379884035500E-017 ) ) ;
#50 = DIRECTION ( 'NONE',  ( -0.0000000000000000000, -1.000000000000000000, -0.0000000000000000000 ) ) ;
#51 = CARTESIAN_POINT ( 'NONE',  ( -1.250000000000000200, 0.4000000000000000200, -1.249999999999999800 ) ) ;
#52 = DIRECTION ( 'NONE',  ( 1.000000000000000000, 0.0000000000000000000, -8.673617379884036700E-017 ) ) ;
#53 = CARTESIAN_POINT ( 'NONE',  ( 1.249999999999999800, 0.4000000000000000200, -1.250000000000000000 ) ) ;
#54 = CARTESIAN_POINT ( 'NONE',  ( -1.249999999999999600, 0.4000000000000000200, 1.250000000000000200 ) ) ;
#55 = CARTESIAN_POINT ( 'NONE',  ( 1.249999999999999800, 0.0000000000000000000, -1.250000000000000000 ) ) ;
#56 = CARTESIAN_POINT ( 'NONE',  ( -1.249999999999999600, 0.4000000000000000200, 1.250000000000000200 ) ) ;
#57 = DIRECTION ( 'NONE',  ( 1.000000000000000000, 0.0000000000000000000, -8.673617379884036700E-017 ) ) ;
#58 = CARTESIAN_POINT ( 'NONE',  ( -1.250000000000000200, 0.0000000000000000000, -1.249999999999999800 ) ) ;
#59 = DIRECTION ( 'NONE',  ( 2.602085213965210600E-016, 0.0000000000000000000, 1.000000000000000000 ) ) ;
#60 = CARTESIAN_POINT ( 'NONE',  ( 1.249999999999999800, 0.4000000000000000200, -1.250000000000000000 ) ) ;
#61 = CARTESIAN_POINT ( 'NONE',  ( -1.249999999999999600, 0.4000000000000000200, 1.250000000000000200 ) ) ;
#62 = CARTESIAN_POINT ( 'NONE',  ( 1.250000000000000000, 0.0000000000000000000, 1.250000000000000000 ) ) ;
#63 = CARTESIAN_POINT ( 'NONE',  ( 1.250000000000000000, 0.4000000000000000200, 1.250000000000000000 ) ) ;
#64 = CARTESIAN_POINT ( 'NONE',  ( -1.250000000000000200, 0.4000000000000000200, -1.249999999999999800 ) ) ;
#65 = CARTESIAN_POINT ( 'NONE',  ( -1.250000000000000200, 0.4000000000000000200, -1.249999999999999800 ) ) ;
#66 = FILL_AREA_STYLE_COLOUR ( '', #137 ) ;
#67 = CARTESIAN_POINT ( 'NONE',  ( -1.249999999999999600, 0.0000000000000000000, 1.250000000000000200 ) ) ;
#68 = CARTESIAN_POINT ( 'NONE',  ( 1.249999999999999800, 0.0000000000000000000, -1.250000000000000000 ) ) ;
#69 = CARTESIAN_POINT ( 'NONE',  ( -1.249999999999999600, 0.0000000000000000000, 1.250000000000000200 ) ) ;
#70 = DIRECTION ( 'NONE',  ( -0.0000000000000000000, -1.000000000000000000, -0.0000000000000000000 ) ) ;
#71 = DIRECTION ( 'NONE',  ( 2.602085213965210600E-016, 0.0000000000000000000, 1.000000000000000000 ) ) ;
#72 = DIRECTION ( 'NONE',  ( -0.0000000000000000000, -1.000000000000000000, -0.0000000000000000000 ) ) ;
#73 = CARTESIAN_POINT ( 'NONE',  ( -1.250000000000000200, 0.4000000000000000200, -1.249999999999999800 ) ) ;
#74 = CARTESIAN_POINT ( 'NONE',  ( -1.250000000000000200, 0.0000000000000000000, -1.249999999999999800 ) ) ;
#75 = SURFACE_SIDE_STYLE ('',( #136 ) ) ;
#76 = SURFACE_STYLE_USAGE ( .BOTH. , #75 ) ;
#77 = FILL_AREA_STYLE ('',( #66 ) ) ;
#78 =( LENGTH_UNIT ( ) NAMED_UNIT ( * ) SI_UNIT ( .MILLI., .METRE. ) );
#79 =( NAMED_UNIT ( * ) PLANE_ANGLE_UNIT ( ) SI_UNIT ( $, .RADIAN. ) );
#80 = CARTESIAN_POINT ( 'NONE',  ( 1.250000000000000000, 0.4000000000000000200, 1.250000000000000000 ) ) ;
#81 =( NAMED_UNIT ( * ) SI_UNIT ( $, .STERADIAN. ) SOLID_ANGLE_UNIT ( ) );
#82 = PRODUCT ( 'PKDEP4', 'PKDEP4', '', ( #194 ) ) ;
#83 = SURFACE_STYLE_FILL_AREA ( #239 ) ;
#84 = COLOUR_RGB ( '',1.000000000000000000, 1.000000000000000000, 1.000000000000000000 ) ;
#85 = MECHANICAL_DESIGN_GEOMETRIC_PRESENTATION_REPRESENTATION (  '', ( #92 ), #1 ) ;
#86 = PRESENTATION_STYLE_ASSIGNMENT (( #275 ) ) ;
#87 = FACE_OUTER_BOUND ( 'NONE', #129, .T. ) ;
#88 = STYLED_ITEM ( 'NONE', ( #135 ), #169 ) ;
#89 = EDGE_CURVE ( 'NONE', #109, #98, #133, .T. ) ;
#90 = MECHANICAL_DESIGN_GEOMETRIC_PRESENTATION_REPRESENTATION (  '', ( #88 ), #93 ) ;
#91 = PRESENTATION_LAYER_ASSIGNMENT (  '', '', ( #88 ) ) ;
#92 = STYLED_ITEM ( 'NONE', ( #154 ), #287 ) ;
#93 =( GEOMETRIC_REPRESENTATION_CONTEXT ( 3 ) GLOBAL_UNCERTAINTY_ASSIGNED_CONTEXT ( ( #172 ) ) GLOBAL_UNIT_ASSIGNED_CONTEXT ( ( #78, #79, #81 ) ) REPRESENTATION_CONTEXT ( 'NONE', 'WORKASPACE' ) );
#94 = ORIENTED_EDGE ( 'NONE', *, *, #187, .F. ) ;
#95 = ORIENTED_EDGE ( 'NONE', *, *, #182, .F. ) ;
#96 = EDGE_LOOP ( 'NONE', ( #117, #94, #132, #113 ) ) ;
#97 = ORIENTED_EDGE ( 'NONE', *, *, #184, .T. ) ;
#98 = VERTEX_POINT ( 'NONE', #61 ) ;
#99 = VERTEX_POINT ( 'NONE', #62 ) ;
#100 = VERTEX_POINT ( 'NONE', #58 ) ;
#101 = ORIENTED_EDGE ( 'NONE', *, *, #180, .F. ) ;
#102 = EDGE_LOOP ( 'NONE', ( #115, #101, #116, #131 ) ) ;
#103 = EDGE_LOOP ( 'NONE', ( #118, #122, #125, #119 ) ) ;
#104 = CLOSED_SHELL ( 'NONE', ( #288, #292, #291, #290, #289, #287 ) ) ;
#105 = VERTEX_POINT ( 'NONE', #55 ) ;
#106 = VERTEX_POINT ( 'NONE', #63 ) ;
#107 = VERTEX_POINT ( 'NONE', #60 ) ;
#108 = VERTEX_POINT ( 'NONE', #67 ) ;
#109 = VERTEX_POINT ( 'NONE', #65 ) ;
#110 = ORIENTED_EDGE ( 'NONE', *, *, #185, .F. ) ;
#111 = ORIENTED_EDGE ( 'NONE', *, *, #181, .T. ) ;
#112 = ORIENTED_EDGE ( 'NONE', *, *, #178, .T. ) ;
#113 = ORIENTED_EDGE ( 'NONE', *, *, #186, .F. ) ;
#114 = ORIENTED_EDGE ( 'NONE', *, *, #89, .F. ) ;
#115 = ORIENTED_EDGE ( 'NONE', *, *, #187, .T. ) ;
#116 = ORIENTED_EDGE ( 'NONE', *, *, #183, .F. ) ;
#117 = ORIENTED_EDGE ( 'NONE', *, *, #178, .F. ) ;
#118 = ORIENTED_EDGE ( 'NONE', *, *, #186, .T. ) ;
#119 = ORIENTED_EDGE ( 'NONE', *, *, #182, .T. ) ;
#120 = ORIENTED_EDGE ( 'NONE', *, *, #89, .T. ) ;
#121 = ORIENTED_EDGE ( 'NONE', *, *, #180, .T. ) ;
#122 = ORIENTED_EDGE ( 'NONE', *, *, #179, .F. ) ;
#123 = EDGE_LOOP ( 'NONE', ( #111, #110, #124, #130 ) ) ;
#124 = ORIENTED_EDGE ( 'NONE', *, *, #188, .F. ) ;
#125 = ORIENTED_EDGE ( 'NONE', *, *, #184, .F. ) ;
#126 = EDGE_LOOP ( 'NONE', ( #120, #97, #128, #127 ) ) ;
#127 = ORIENTED_EDGE ( 'NONE', *, *, #183, .T. ) ;
#128 = ORIENTED_EDGE ( 'NONE', *, *, #188, .T. ) ;
#129 = EDGE_LOOP ( 'NONE', ( #112, #95, #114, #121 ) ) ;
#130 = ORIENTED_EDGE ( 'NONE', *, *, #179, .T. ) ;
#131 = ORIENTED_EDGE ( 'NONE', *, *, #185, .T. ) ;
#132 = ORIENTED_EDGE ( 'NONE', *, *, #181, .F. ) ;
#133 = LINE ( 'NONE', #51, #134 ) ;
#134 = VECTOR ( 'NONE', #59, 1000.000000000000000 ) ;
#135 = PRESENTATION_STYLE_ASSIGNMENT (( #76 ) ) ;
#136 = SURFACE_STYLE_FILL_AREA ( #77 ) ;
#137 = COLOUR_RGB ( '',1.000000000000000000, 1.000000000000000000, 1.000000000000000000 ) ;
#138 = LINE ( 'NONE', #80, #143 ) ;
#139 = LINE ( 'NONE', #73, #145 ) ;
#140 = LINE ( 'NONE', #74, #141 ) ;
#141 = VECTOR ( 'NONE', #71, 1000.000000000000000 ) ;
#142 = LINE ( 'NONE', #64, #151 ) ;
#143 = VECTOR ( 'NONE', #72, 1000.000000000000000 ) ;
#144 = LINE ( 'NONE', #68, #147 ) ;
#145 = VECTOR ( 'NONE', #70, 1000.000000000000000 ) ;
#146 = LINE ( 'NONE', #54, #149 ) ;
#147 = VECTOR ( 'NONE', #47, 1000.000000000000000 ) ;
#148 = LINE ( 'NONE', #69, #157 ) ;
#149 = VECTOR ( 'NONE', #48, 1000.000000000000000 ) ;
#150 = LINE ( 'NONE', #56, #153 ) ;
#151 = VECTOR ( 'NONE', #49, 1000.000000000000000 ) ;
#152 = LINE ( 'NONE', #53, #155 ) ;
#153 = VECTOR ( 'NONE', #57, 1000.000000000000000 ) ;
#154 = PRESENTATION_STYLE_ASSIGNMENT (( #228 ) ) ;
#155 = VECTOR ( 'NONE', #50, 1000.000000000000000 ) ;
#156 = LINE ( 'NONE', #241, #159 ) ;
#157 = VECTOR ( 'NONE', #52, 1000.000000000000000 ) ;
#158 = LINE ( 'NONE', #269, #161 ) ;
#159 = VECTOR ( 'NONE', #268, 1000.000000000000000 ) ;
#160 = SURFACE_STYLE_FILL_AREA ( #226 ) ;
#161 = VECTOR ( 'NONE', #203, 1000.000000000000000 ) ;
#162 = COLOUR_RGB ( '',1.000000000000000000, 1.000000000000000000, 1.000000000000000000 ) ;
#163 = FACE_OUTER_BOUND ( 'NONE', #96, .T. ) ;
#164 = PRESENTATION_LAYER_ASSIGNMENT (  '', '', ( #92 ) ) ;
#165 = PRODUCT_DEFINITION_SHAPE ( 'NONE', 'NONE',  #284 ) ;
#166 = PRODUCT_DEFINITION_CONTEXT ( 'detailed design', #190, 'design' ) ;
#167 = UNCERTAINTY_MEASURE_WITH_UNIT (LENGTH_MEASURE( 1.000000000000000100E-005 ), #254, 'distance_accuracy_value', 'NONE');
#168 = UNCERTAINTY_MEASURE_WITH_UNIT (LENGTH_MEASURE( 1.000000000000000100E-005 ), #265, 'distance_accuracy_value', 'NONE');
#169 = MANIFOLD_SOLID_BREP ( 'Boss-Extrude1', #104 ) ;
#170 = UNCERTAINTY_MEASURE_WITH_UNIT (LENGTH_MEASURE( 1.000000000000000100E-005 ), #240, 'distance_accuracy_value', 'NONE');
#171 = UNCERTAINTY_MEASURE_WITH_UNIT (LENGTH_MEASURE( 1.000000000000000100E-005 ), #235, 'distance_accuracy_value', 'NONE');
#172 = UNCERTAINTY_MEASURE_WITH_UNIT (LENGTH_MEASURE( 1.000000000000000100E-005 ), #78, 'distance_accuracy_value', 'NONE');
#173 = UNCERTAINTY_MEASURE_WITH_UNIT (LENGTH_MEASURE( 1.000000000000000100E-005 ), #229, 'distance_accuracy_value', 'NONE');
#174 = UNCERTAINTY_MEASURE_WITH_UNIT (LENGTH_MEASURE( 1.000000000000000100E-005 ), #204, 'distance_accuracy_value', 'NONE');
#175 = UNCERTAINTY_MEASURE_WITH_UNIT (LENGTH_MEASURE( 1.000000000000000100E-005 ), #219, 'distance_accuracy_value', 'NONE');
#176 = ADVANCED_BREP_SHAPE_REPRESENTATION ( 'PKDEP4', ( #169, #283 ), #277 ) ;
#177 = UNCERTAINTY_MEASURE_WITH_UNIT (LENGTH_MEASURE( 1.000000000000000100E-005 ), #221, 'distance_accuracy_value', 'NONE');
#178 = EDGE_CURVE ( 'NONE', #100, #108, #140, .T. ) ;
#179 = EDGE_CURVE ( 'NONE', #106, #99, #138, .T. ) ;
#180 = EDGE_CURVE ( 'NONE', #109, #100, #139, .T. ) ;
#181 = EDGE_CURVE ( 'NONE', #99, #105, #144, .T. ) ;
#182 = EDGE_CURVE ( 'NONE', #98, #108, #146, .T. ) ;
#183 = EDGE_CURVE ( 'NONE', #107, #109, #142, .T. ) ;
#184 = EDGE_CURVE ( 'NONE', #98, #106, #150, .T. ) ;
#185 = EDGE_CURVE ( 'NONE', #107, #105, #152, .T. ) ;
#186 = EDGE_CURVE ( 'NONE', #108, #99, #148, .T. ) ;
#187 = EDGE_CURVE ( 'NONE', #105, #100, #156, .T. ) ;
#188 = EDGE_CURVE ( 'NONE', #106, #107, #158, .T. ) ;
#189 = APPLICATION_PROTOCOL_DEFINITION ( 'draft international standard', 'automotive_design', 1998, #190 ) ;
#190 = APPLICATION_CONTEXT ( 'automotive_design' ) ;
#191 = DIRECTION ( 'NONE',  ( -0.0000000000000000000, 1.000000000000000000, 0.0000000000000000000 ) ) ;
#192 = CARTESIAN_POINT ( 'NONE',  ( 0.0000000000000000000, 0.0000000000000000000, 0.0000000000000000000 ) ) ;
#193 =( NAMED_UNIT ( * ) SI_UNIT ( $, .STERADIAN. ) SOLID_ANGLE_UNIT ( ) );
#194 = PRODUCT_CONTEXT ( 'NONE', #210, 'mechanical' ) ;
#195 = DIRECTION ( 'NONE',  ( 1.000000000000000000, 0.0000000000000000000, 0.0000000000000000000 ) ) ;
#196 = DIRECTION ( 'NONE',  ( 0.0000000000000000000, 0.0000000000000000000, 1.000000000000000000 ) ) ;
#197 = CARTESIAN_POINT ( 'NONE',  ( 0.0000000000000000000, 0.0000000000000000000, 0.0000000000000000000 ) ) ;
#198 = DIRECTION ( 'NONE',  ( 0.0000000000000000000, -0.0000000000000000000, 1.000000000000000000 ) ) ;
#199 =( NAMED_UNIT ( * ) PLANE_ANGLE_UNIT ( ) SI_UNIT ( $, .RADIAN. ) );
#200 =( NAMED_UNIT ( * ) PLANE_ANGLE_UNIT ( ) SI_UNIT ( $, .RADIAN. ) );
#201 =( NAMED_UNIT ( * ) SI_UNIT ( $, .STERADIAN. ) SOLID_ANGLE_UNIT ( ) );
#202 =( NAMED_UNIT ( * ) SI_UNIT ( $, .STERADIAN. ) SOLID_ANGLE_UNIT ( ) );
#203 = DIRECTION ( 'NONE',  ( -8.673617379884035500E-017, -0.0000000000000000000, -1.000000000000000000 ) ) ;
#204 =( LENGTH_UNIT ( ) NAMED_UNIT ( * ) SI_UNIT ( .MILLI., .METRE. ) );
#205 = SURFACE_STYLE_USAGE ( .BOTH. , #206 ) ;
#206 = SURFACE_SIDE_STYLE ('',( #41 ) ) ;
#207 = DIRECTION ( 'NONE',  ( -1.000000000000000000, 0.0000000000000000000, 8.673617379884036700E-017 ) ) ;
#208 = DIRECTION ( 'NONE',  ( -8.673617379884036700E-017, 0.0000000000000000000, -1.000000000000000000 ) ) ;
#209 = CARTESIAN_POINT ( 'NONE',  ( -1.249999999999999600, 0.4000000000000000200, 1.250000000000000200 ) ) ;
#210 = APPLICATION_CONTEXT ( 'automotive_design' ) ;
#211 = APPLICATION_PROTOCOL_DEFINITION ( 'draft international standard', 'automotive_design', 1998, #210 ) ;
#212 = SURFACE_SIDE_STYLE ('',( #43 ) ) ;
#213 = FILL_AREA_STYLE ('',( #214 ) ) ;
#214 = FILL_AREA_STYLE_COLOUR ( '', #44 ) ;
#215 =( NAMED_UNIT ( * ) SI_UNIT ( $, .STERADIAN. ) SOLID_ANGLE_UNIT ( ) );
#216 =( NAMED_UNIT ( * ) PLANE_ANGLE_UNIT ( ) SI_UNIT ( $, .RADIAN. ) );
#217 =( NAMED_UNIT ( * ) SI_UNIT ( $, .STERADIAN. ) SOLID_ANGLE_UNIT ( ) );
#218 =( NAMED_UNIT ( * ) PLANE_ANGLE_UNIT ( ) SI_UNIT ( $, .RADIAN. ) );
#219 =( LENGTH_UNIT ( ) NAMED_UNIT ( * ) SI_UNIT ( .MILLI., .METRE. ) );
#220 =( NAMED_UNIT ( * ) PLANE_ANGLE_UNIT ( ) SI_UNIT ( $, .RADIAN. ) );
#221 =( LENGTH_UNIT ( ) NAMED_UNIT ( * ) SI_UNIT ( .MILLI., .METRE. ) );
#222 = SURFACE_STYLE_USAGE ( .BOTH. , #212 ) ;
#223 = FILL_AREA_STYLE_COLOUR ( '', #84 ) ;
#224 = FILL_AREA_STYLE_COLOUR ( '', #162 ) ;
#225 = PLANE ( 'NONE',  #8 ) ;
#226 = FILL_AREA_STYLE ('',( #224 ) ) ;
#227 = SURFACE_SIDE_STYLE ('',( #160 ) ) ;
#228 = SURFACE_STYLE_USAGE ( .BOTH. , #227 ) ;
#229 =( LENGTH_UNIT ( ) NAMED_UNIT ( * ) SI_UNIT ( .MILLI., .METRE. ) );
#230 = PLANE ( 'NONE',  #13 ) ;
#231 = DIRECTION ( 'NONE',  ( -0.0000000000000000000, 1.000000000000000000, 0.0000000000000000000 ) ) ;
#232 = CARTESIAN_POINT ( 'NONE',  ( 0.0000000000000000000, 0.4000000000000000200, 0.0000000000000000000 ) ) ;
#233 =( NAMED_UNIT ( * ) SI_UNIT ( $, .STERADIAN. ) SOLID_ANGLE_UNIT ( ) );
#234 =( NAMED_UNIT ( * ) PLANE_ANGLE_UNIT ( ) SI_UNIT ( $, .RADIAN. ) );
#235 =( LENGTH_UNIT ( ) NAMED_UNIT ( * ) SI_UNIT ( .MILLI., .METRE. ) );
#236 = SURFACE_STYLE_USAGE ( .BOTH. , #249 ) ;
#237 = FILL_AREA_STYLE_COLOUR ( '', #30 ) ;
#238 = PLANE ( 'NONE',  #23 ) ;
#239 = FILL_AREA_STYLE ('',( #223 ) ) ;
#240 =( LENGTH_UNIT ( ) NAMED_UNIT ( * ) SI_UNIT ( .MILLI., .METRE. ) );
#241 = CARTESIAN_POINT ( 'NONE',  ( -1.250000000000000200, 0.0000000000000000000, -1.249999999999999800 ) ) ;
#242 = DIRECTION ( 'NONE',  ( 0.0000000000000000000, -0.0000000000000000000, 1.000000000000000000 ) ) ;
#243 = FILL_AREA_STYLE_COLOUR ( '', #38 ) ;
#244 = FILL_AREA_STYLE ('',( #247 ) ) ;
#245 = SURFACE_SIDE_STYLE ('',( #33 ) ) ;
#246 = SURFACE_STYLE_USAGE ( .BOTH. , #245 ) ;
#247 = FILL_AREA_STYLE_COLOUR ( '', #34 ) ;
#248 = FILL_AREA_STYLE ('',( #237 ) ) ;
#249 = SURFACE_SIDE_STYLE ('',( #29 ) ) ;
#250 = DIRECTION ( 'NONE',  ( -2.602085213965210600E-016, 0.0000000000000000000, -1.000000000000000000 ) ) ;
#251 = PLANE ( 'NONE',  #18 ) ;
#252 = CARTESIAN_POINT ( 'NONE',  ( -1.250000000000000200, 0.4000000000000000200, -1.249999999999999800 ) ) ;
#253 = DIRECTION ( 'NONE',  ( 1.000000000000000000, 0.0000000000000000000, -2.602085213965210600E-016 ) ) ;
#254 =( LENGTH_UNIT ( ) NAMED_UNIT ( * ) SI_UNIT ( .MILLI., .METRE. ) );
#255 =( NAMED_UNIT ( * ) PLANE_ANGLE_UNIT ( ) SI_UNIT ( $, .RADIAN. ) );
#256 =( NAMED_UNIT ( * ) SI_UNIT ( $, .STERADIAN. ) SOLID_ANGLE_UNIT ( ) );
#257 = CARTESIAN_POINT ( 'NONE',  ( -1.250000000000000200, 0.4000000000000000200, -1.249999999999999800 ) ) ;
#258 = DIRECTION ( 'NONE',  ( 8.673617379884035500E-017, -0.0000000000000000000, 1.000000000000000000 ) ) ;
#259 = DIRECTION ( 'NONE',  ( 1.000000000000000000, 0.0000000000000000000, -8.673617379884035500E-017 ) ) ;
#260 = PLANE ( 'NONE',  #278 ) ;
#261 = FILL_AREA_STYLE_COLOUR ( '', #42 ) ;
#262 = FILL_AREA_STYLE ('',( #243 ) ) ;
#263 = SURFACE_STYLE_USAGE ( .BOTH. , #264 ) ;
#264 = SURFACE_SIDE_STYLE ('',( #37 ) ) ;
#265 =( LENGTH_UNIT ( ) NAMED_UNIT ( * ) SI_UNIT ( .MILLI., .METRE. ) );
#266 =( NAMED_UNIT ( * ) PLANE_ANGLE_UNIT ( ) SI_UNIT ( $, .RADIAN. ) );
#267 = PLANE ( 'NONE',  #3 ) ;
#268 = DIRECTION ( 'NONE',  ( -1.000000000000000000, -0.0000000000000000000, 8.673617379884035500E-017 ) ) ;
#269 = CARTESIAN_POINT ( 'NONE',  ( 1.249999999999999800, 0.4000000000000000200, -1.250000000000000000 ) ) ;
#270 =( NAMED_UNIT ( * ) SI_UNIT ( $, .STERADIAN. ) SOLID_ANGLE_UNIT ( ) );
#271 = CARTESIAN_POINT ( 'NONE',  ( 1.249999999999999800, 0.4000000000000000200, -1.250000000000000000 ) ) ;
#272 = DIRECTION ( 'NONE',  ( -1.000000000000000000, 0.0000000000000000000, 8.673617379884035500E-017 ) ) ;
#273 = DIRECTION ( 'NONE',  ( 8.673617379884035500E-017, 0.0000000000000000000, 1.000000000000000000 ) ) ;
#274 = SURFACE_SIDE_STYLE ('',( #83 ) ) ;
#275 = SURFACE_STYLE_USAGE ( .BOTH. , #274 ) ;
#276 = FILL_AREA_STYLE ('',( #261 ) ) ;
#277 =( GEOMETRIC_REPRESENTATION_CONTEXT ( 3 ) GLOBAL_UNCERTAINTY_ASSIGNED_CONTEXT ( ( #175 ) ) GLOBAL_UNIT_ASSIGNED_CONTEXT ( ( #219, #218, #217 ) ) REPRESENTATION_CONTEXT ( 'NONE', 'WORKASPACE' ) );
#278 = AXIS2_PLACEMENT_3D ( 'NONE', #209, #208, #207 ) ;
#279 = STYLED_ITEM ( 'NONE', ( #45 ), #176 ) ;
#280 = PRESENTATION_LAYER_ASSIGNMENT (  '', '', ( #279 ) ) ;
#281 = MECHANICAL_DESIGN_GEOMETRIC_PRESENTATION_REPRESENTATION (  '', ( #279 ), #282 ) ;
#282 =( GEOMETRIC_REPRESENTATION_CONTEXT ( 3 ) GLOBAL_UNCERTAINTY_ASSIGNED_CONTEXT ( ( #177 ) ) GLOBAL_UNIT_ASSIGNED_CONTEXT ( ( #221, #220, #193 ) ) REPRESENTATION_CONTEXT ( 'NONE', 'WORKASPACE' ) );
#283 = AXIS2_PLACEMENT_3D ( 'NONE', #192, #196, #195 ) ;
#284 = PRODUCT_DEFINITION ( 'UNKNOWN', '', #285, #166 ) ;
#285 = PRODUCT_DEFINITION_FORMATION_WITH_SPECIFIED_SOURCE ( 'ANY', '', #82, .NOT_KNOWN. ) ;
#286 = PRODUCT_RELATED_PRODUCT_CATEGORY ( 'part', '', ( #82 ) ) ;
#287 = ADVANCED_FACE ( 'NONE', ( #163 ), #267, .F. ) ;
#288 = ADVANCED_FACE ( 'NONE', ( #87 ), #225, .F. ) ;
#289 = ADVANCED_FACE ( 'NONE', ( #27 ), #230, .T. ) ;
#290 = ADVANCED_FACE ( 'NONE', ( #31 ), #251, .F. ) ;
#291 = ADVANCED_FACE ( 'NONE', ( #35 ), #238, .F. ) ;
#292 = ADVANCED_FACE ( 'NONE', ( #39 ), #260, .F. ) ;
ENDSEC;
END-ISO-10303-21;
