ISO-10303-21;
HEADER;
FILE_DESCRIPTION (( 'STEP AP203' ),
    '1' );
FILE_NAME ('Web Model 19655_19655.step',
    '2021-11-03T14:06:36',
    ( '' ),
    ( '' ),
    'SwSTEP 2.0',
    'SolidWorks 2018',
    '' );
FILE_SCHEMA (( 'CONFIG_CONTROL_DESIGN' ));
ENDSEC;

DATA;
#1 = PERSON_AND_ORGANIZATION ( #39, #5 ) ;
#2 = VERTEX_POINT ( 'NONE', #147 ) ;
#3 = COORDINATED_UNIVERSAL_TIME_OFFSET ( 5, 0, .BEHIND. ) ;
#4 = CC_DESIGN_PERSON_AND_ORGANIZATION_ASSIGNMENT ( #1, #121, ( #104 ) ) ;
#5 = ORGANIZATION ( 'UNSPECIFIED', 'UNSPECIFIED', '' ) ;
#6 = ORIENTED_EDGE ( 'NONE', *, *, #168, .F. ) ;
#7 = DIRECTION ( 'NONE',  ( 1.000000000000000000, 0.000000000000000000, 0.000000000000000000 ) ) ;
#8 = COORDINATED_UNIVERSAL_TIME_OFFSET ( 5, 0, .BEHIND. ) ;
#9 = LINE ( 'NONE', #139, #141 ) ;
#10 =( NAMED_UNIT ( * ) PLANE_ANGLE_UNIT ( ) SI_UNIT ( $, .RADIAN. ) );
#11 = ORIENTED_EDGE ( 'NONE', *, *, #111, .F. ) ;
#12 = LOCAL_TIME ( 10, 6, 36.00000000000000000, #42 ) ;
#13 = EDGE_CURVE ( 'NONE', #2, #150, #97, .T. ) ;
#14 = CC_DESIGN_DATE_AND_TIME_ASSIGNMENT ( #69, #70, ( #94 ) ) ;
#15 = CALENDAR_DATE ( 2021, 3, 11 ) ;
#16 = PRODUCT_DEFINITION_SHAPE ( 'NONE', 'NONE',  #94 ) ;
#17 = ORIENTED_EDGE ( 'NONE', *, *, #56, .F. ) ;
#18 = APPROVAL_PERSON_ORGANIZATION ( #88, #138, #60 ) ;
#19 = UNCERTAINTY_MEASURE_WITH_UNIT (LENGTH_MEASURE( 1.000000000000000082E-05 ), #163, 'distance_accuracy_value', 'NONE');
#20 = AXIS2_PLACEMENT_3D ( 'NONE', #160, #22, #131 ) ;
#21 = COORDINATED_UNIVERSAL_TIME_OFFSET ( 5, 0, .BEHIND. ) ;
#22 = DIRECTION ( 'NONE',  ( 0.000000000000000000, 0.000000000000000000, 1.000000000000000000 ) ) ;
#23 = CARTESIAN_POINT ( 'NONE',  ( -25.39999999999999858, 0.000000000000000000, 3.000000000000000000 ) ) ;
#24 = CC_DESIGN_PERSON_AND_ORGANIZATION_ASSIGNMENT ( #93, #71, ( #124 ) ) ;
#25 = DIRECTION ( 'NONE',  ( -1.000000000000000000, 0.000000000000000000, 0.000000000000000000 ) ) ;
#26 = CARTESIAN_POINT ( 'NONE',  ( 0.000000000000000000, 0.000000000000000000, 0.000000000000000000 ) ) ;
#27 = CC_DESIGN_APPROVAL ( #138, ( #45 ) ) ;
#28 = EDGE_CURVE ( 'NONE', #58, #2, #9, .T. ) ;
#29 = APPROVAL_STATUS ( 'not_yet_approved' ) ;
#30 = AXIS2_PLACEMENT_3D ( 'NONE', #43, #61, #161 ) ;
#31 = DATE_AND_TIME ( #127, #115 ) ;
#32 =( NAMED_UNIT ( * ) SI_UNIT ( $, .STERADIAN. ) SOLID_ANGLE_UNIT ( ) );
#33 = CARTESIAN_POINT ( 'NONE',  ( 0.000000000000000000, 0.000000000000000000, 3.000000000000000000 ) ) ;
#34 = CALENDAR_DATE ( 2021, 3, 11 ) ;
#35 = AXIS2_PLACEMENT_3D ( 'NONE', #33, #79, #50 ) ;
#36 = ORIENTED_EDGE ( 'NONE', *, *, #56, .T. ) ;
#37 = PERSON_AND_ORGANIZATION ( #39, #5 ) ;
#38 = DESIGN_CONTEXT ( 'detailed design', #133, 'design' ) ;
#39 = PERSON ( 'UNSPECIFIED', 'UNSPECIFIED', 'UNSPECIFIED', ('UNSPECIFIED'), ('UNSPECIFIED'), ('UNSPECIFIED') ) ;
#40 = EDGE_LOOP ( 'NONE', ( #118, #166 ) ) ;
#41 = PERSON_AND_ORGANIZATION_ROLE ( 'classification_officer' ) ;
#42 = COORDINATED_UNIVERSAL_TIME_OFFSET ( 5, 0, .BEHIND. ) ;
#43 = CARTESIAN_POINT ( 'NONE',  ( 0.000000000000000000, 0.000000000000000000, 3.000000000000000000 ) ) ;
#44 = APPROVAL_STATUS ( 'not_yet_approved' ) ;
#45 = SECURITY_CLASSIFICATION ( '', '', #62 ) ;
#46 = APPROVAL_PERSON_ORGANIZATION ( #152, #103, #142 ) ;
#47 = CARTESIAN_POINT ( 'NONE',  ( 0.000000000000000000, 0.000000000000000000, 0.000000000000000000 ) ) ;
#48 = CARTESIAN_POINT ( 'NONE',  ( 0.000000000000000000, 0.000000000000000000, 3.000000000000000000 ) ) ;
#49 = MECHANICAL_CONTEXT ( 'NONE', #174, 'mechanical' ) ;
#50 = DIRECTION ( 'NONE',  ( -1.000000000000000000, 0.000000000000000000, 0.000000000000000000 ) ) ;
#51 = PERSON_AND_ORGANIZATION ( #39, #5 ) ;
#52 = DIRECTION ( 'NONE',  ( 1.000000000000000000, 0.000000000000000000, 0.000000000000000000 ) ) ;
#53 = SHAPE_DEFINITION_REPRESENTATION ( #16, #165 ) ;
#54 = APPROVAL_DATE_TIME ( #120, #99 ) ;
#55 = ADVANCED_FACE ( 'NONE', ( #85 ), #171, .F. ) ;
#56 = EDGE_CURVE ( 'NONE', #150, #2, #76, .T. ) ;
#57 = ADVANCED_FACE ( 'NONE', ( #154 ), #113, .T. ) ;
#58 = VERTEX_POINT ( 'NONE', #23 ) ;
#59 = CC_DESIGN_DATE_AND_TIME_ASSIGNMENT ( #31, #145, ( #45 ) ) ;
#60 = APPROVAL_ROLE ( '' ) ;
#61 = DIRECTION ( 'NONE',  ( 0.000000000000000000, 0.000000000000000000, 1.000000000000000000 ) ) ;
#62 = SECURITY_CLASSIFICATION_LEVEL ( 'unclassified' ) ;
#63 = LOCAL_TIME ( 10, 6, 36.00000000000000000, #73 ) ;
#64 = DIRECTION ( 'NONE',  ( 0.000000000000000000, 0.000000000000000000, 1.000000000000000000 ) ) ;
#65 = DIRECTION ( 'NONE',  ( 1.000000000000000000, 0.000000000000000000, 0.000000000000000000 ) ) ;
#66 = ORIENTED_EDGE ( 'NONE', *, *, #28, .F. ) ;
#67 = FACE_OUTER_BOUND ( 'NONE', #102, .T. ) ;
#68 = AXIS2_PLACEMENT_3D ( 'NONE', #117, #134, #25 ) ;
#69 = DATE_AND_TIME ( #34, #12 ) ;
#70 = DATE_TIME_ROLE ( 'creation_date' ) ;
#71 = PERSON_AND_ORGANIZATION_ROLE ( 'design_supplier' ) ;
#72 = EDGE_LOOP ( 'NONE', ( #106, #6, #129, #158 ) ) ;
#73 = COORDINATED_UNIVERSAL_TIME_OFFSET ( 5, 0, .BEHIND. ) ;
#74 = CARTESIAN_POINT ( 'NONE',  ( 0.000000000000000000, 0.000000000000000000, 0.000000000000000000 ) ) ;
#75 = CC_DESIGN_PERSON_AND_ORGANIZATION_ASSIGNMENT ( #51, #157, ( #124 ) ) ;
#76 = CIRCLE ( 'NONE', #143, 25.39999999999999858 ) ;
#77 = CARTESIAN_POINT ( 'NONE',  ( 0.000000000000000000, 0.000000000000000000, 3.000000000000000000 ) ) ;
#78 = APPLICATION_PROTOCOL_DEFINITION ( 'international standard', 'config_control_design', 1994, #133 ) ;
#79 = DIRECTION ( 'NONE',  ( -0.000000000000000000, -0.000000000000000000, -1.000000000000000000 ) ) ;
#80 = VERTEX_POINT ( 'NONE', #100 ) ;
#81 = CALENDAR_DATE ( 2021, 3, 11 ) ;
#82 = CIRCLE ( 'NONE', #167, 25.39999999999999858 ) ;
#83 = CYLINDRICAL_SURFACE ( 'NONE', #68, 25.39999999999999858 ) ;
#84 = AXIS2_PLACEMENT_3D ( 'NONE', #26, #149, #65 ) ;
#85 = FACE_OUTER_BOUND ( 'NONE', #96, .T. ) ;
#86 = AXIS2_PLACEMENT_3D ( 'NONE', #47, #173, #7 ) ;
#87 = DIRECTION ( 'NONE',  ( 1.000000000000000000, 0.000000000000000000, 0.000000000000000000 ) ) ;
#88 = PERSON_AND_ORGANIZATION ( #39, #5 ) ;
#89 = APPLICATION_PROTOCOL_DEFINITION ( 'international standard', 'config_control_design', 1994, #174 ) ;
#90 = APPROVAL_STATUS ( 'not_yet_approved' ) ;
#91 = PERSON_AND_ORGANIZATION ( #39, #5 ) ;
#92 = DIRECTION ( 'NONE',  ( -0.000000000000000000, -0.000000000000000000, -1.000000000000000000 ) ) ;
#93 = PERSON_AND_ORGANIZATION ( #39, #5 ) ;
#94 = PRODUCT_DEFINITION ( 'UNKNOWN', '', #124, #38 ) ;
#95 = ORIENTED_EDGE ( 'NONE', *, *, #126, .T. ) ;
#96 = EDGE_LOOP ( 'NONE', ( #140, #17 ) ) ;
#97 = CIRCLE ( 'NONE', #86, 25.39999999999999858 ) ;
#98 = CC_DESIGN_SECURITY_CLASSIFICATION ( #45, ( #124 ) ) ;
#99 = APPROVAL ( #44, 'UNSPECIFIED' ) ;
#100 = CARTESIAN_POINT ( 'NONE',  ( 25.39999999999999858, 3.110602869834276865E-15, 3.000000000000000000 ) ) ;
#101 = CARTESIAN_POINT ( 'NONE',  ( 25.39999999999999858, 3.110602869834276865E-15, 0.000000000000000000 ) ) ;
#102 = EDGE_LOOP ( 'NONE', ( #11, #95, #36, #66 ) ) ;
#103 = APPROVAL ( #90, 'UNSPECIFIED' ) ;
#104 = PRODUCT ( 'Web Model 19655_19655', 'Web Model 19655_19655', '', ( #49 ) ) ;
#105 = CC_DESIGN_APPROVAL ( #103, ( #94 ) ) ;
#106 = ORIENTED_EDGE ( 'NONE', *, *, #126, .F. ) ;
#107 = FACE_OUTER_BOUND ( 'NONE', #72, .T. ) ;
#108 = CALENDAR_DATE ( 2021, 3, 11 ) ;
#109 = PRODUCT_RELATED_PRODUCT_CATEGORY ( 'detail', '', ( #104 ) ) ;
#110 = APPROVAL_ROLE ( '' ) ;
#111 = EDGE_CURVE ( 'NONE', #80, #58, #82, .T. ) ;
#112 = VECTOR ( 'NONE', #92, 1000.000000000000000 ) ;
#113 = PLANE ( 'NONE',  #30 ) ;
#114 = CC_DESIGN_APPROVAL ( #99, ( #124 ) ) ;
#115 = LOCAL_TIME ( 10, 6, 36.00000000000000000, #8 ) ;
#116 = CARTESIAN_POINT ( 'NONE',  ( 25.39999999999999858, 3.110602869834276865E-15, 3.000000000000000000 ) ) ;
#117 = CARTESIAN_POINT ( 'NONE',  ( 0.000000000000000000, 0.000000000000000000, 3.000000000000000000 ) ) ;
#118 = ORIENTED_EDGE ( 'NONE', *, *, #168, .T. ) ;
#119 = CC_DESIGN_PERSON_AND_ORGANIZATION_ASSIGNMENT ( #37, #41, ( #45 ) ) ;
#120 = DATE_AND_TIME ( #81, #130 ) ;
#121 = PERSON_AND_ORGANIZATION_ROLE ( 'design_owner' ) ;
#122 = LOCAL_TIME ( 10, 6, 36.00000000000000000, #21 ) ;
#123 = ADVANCED_FACE ( 'NONE', ( #67 ), #83, .T. ) ;
#124 = PRODUCT_DEFINITION_FORMATION_WITH_SPECIFIED_SOURCE ( 'ANY', '', #104, .NOT_KNOWN. ) ;
#125 = APPROVAL_PERSON_ORGANIZATION ( #137, #99, #110 ) ;
#126 = EDGE_CURVE ( 'NONE', #80, #150, #159, .T. ) ;
#127 = CALENDAR_DATE ( 2021, 3, 11 ) ;
#128 = DATE_AND_TIME ( #108, #63 ) ;
#129 = ORIENTED_EDGE ( 'NONE', *, *, #28, .T. ) ;
#130 = LOCAL_TIME ( 10, 6, 36.00000000000000000, #3 ) ;
#131 = DIRECTION ( 'NONE',  ( 1.000000000000000000, 0.000000000000000000, -0.000000000000000000 ) ) ;
#132 = DIRECTION ( 'NONE',  ( 0.000000000000000000, 0.000000000000000000, 1.000000000000000000 ) ) ;
#133 = APPLICATION_CONTEXT ( 'configuration controlled 3d designs of mechanical parts and assemblies' ) ;
#134 = DIRECTION ( 'NONE',  ( -0.000000000000000000, -0.000000000000000000, -1.000000000000000000 ) ) ;
#135 = CLOSED_SHELL ( 'NONE', ( #123, #153, #57, #55 ) ) ;
#136 = CYLINDRICAL_SURFACE ( 'NONE', #35, 25.39999999999999858 ) ;
#137 = PERSON_AND_ORGANIZATION ( #39, #5 ) ;
#138 = APPROVAL ( #29, 'UNSPECIFIED' ) ;
#139 = CARTESIAN_POINT ( 'NONE',  ( -25.39999999999999858, 0.000000000000000000, 3.000000000000000000 ) ) ;
#140 = ORIENTED_EDGE ( 'NONE', *, *, #13, .F. ) ;
#141 = VECTOR ( 'NONE', #144, 1000.000000000000000 ) ;
#142 = APPROVAL_ROLE ( '' ) ;
#143 = AXIS2_PLACEMENT_3D ( 'NONE', #74, #169, #87 ) ;
#144 = DIRECTION ( 'NONE',  ( -0.000000000000000000, -0.000000000000000000, -1.000000000000000000 ) ) ;
#145 = DATE_TIME_ROLE ( 'classification_date' ) ;
#146 = PERSON_AND_ORGANIZATION_ROLE ( 'creator' ) ;
#147 = CARTESIAN_POINT ( 'NONE',  ( -25.39999999999999858, 0.000000000000000000, 0.000000000000000000 ) ) ;
#148 = DIRECTION ( 'NONE',  ( 1.000000000000000000, 0.000000000000000000, 0.000000000000000000 ) ) ;
#149 = DIRECTION ( 'NONE',  ( 0.000000000000000000, 0.000000000000000000, 1.000000000000000000 ) ) ;
#150 = VERTEX_POINT ( 'NONE', #101 ) ;
#151 = CIRCLE ( 'NONE', #170, 25.39999999999999858 ) ;
#152 = PERSON_AND_ORGANIZATION ( #39, #5 ) ;
#153 = ADVANCED_FACE ( 'NONE', ( #107 ), #136, .T. ) ;
#154 = FACE_OUTER_BOUND ( 'NONE', #40, .T. ) ;
#155 = CC_DESIGN_PERSON_AND_ORGANIZATION_ASSIGNMENT ( #91, #146, ( #94 ) ) ;
#156 = APPROVAL_DATE_TIME ( #162, #138 ) ;
#157 = PERSON_AND_ORGANIZATION_ROLE ( 'creator' ) ;
#158 = ORIENTED_EDGE ( 'NONE', *, *, #13, .T. ) ;
#159 = LINE ( 'NONE', #116, #112 ) ;
#160 = CARTESIAN_POINT ( 'NONE',  ( 0.000000000000000000, 0.000000000000000000, 0.000000000000000000 ) ) ;
#161 = DIRECTION ( 'NONE',  ( 1.000000000000000000, 0.000000000000000000, -0.000000000000000000 ) ) ;
#162 = DATE_AND_TIME ( #15, #122 ) ;
#163 =( LENGTH_UNIT ( ) NAMED_UNIT ( * ) SI_UNIT ( .MILLI., .METRE. ) );
#164 = APPROVAL_DATE_TIME ( #128, #103 ) ;
#165 = ADVANCED_BREP_SHAPE_REPRESENTATION ( 'Web Model 19655_19655', ( #172, #84 ), #175 ) ;
#166 = ORIENTED_EDGE ( 'NONE', *, *, #111, .T. ) ;
#167 = AXIS2_PLACEMENT_3D ( 'NONE', #77, #132, #52 ) ;
#168 = EDGE_CURVE ( 'NONE', #58, #80, #151, .T. ) ;
#169 = DIRECTION ( 'NONE',  ( 0.000000000000000000, 0.000000000000000000, 1.000000000000000000 ) ) ;
#170 = AXIS2_PLACEMENT_3D ( 'NONE', #48, #64, #148 ) ;
#171 = PLANE ( 'NONE',  #20 ) ;
#172 = MANIFOLD_SOLID_BREP ( 'Boss-Extrude1', #135 ) ;
#173 = DIRECTION ( 'NONE',  ( 0.000000000000000000, 0.000000000000000000, 1.000000000000000000 ) ) ;
#174 = APPLICATION_CONTEXT ( 'configuration controlled 3d designs of mechanical parts and assemblies' ) ;
#175 =( GEOMETRIC_REPRESENTATION_CONTEXT ( 3 ) GLOBAL_UNCERTAINTY_ASSIGNED_CONTEXT ( ( #19 ) ) GLOBAL_UNIT_ASSIGNED_CONTEXT ( ( #163, #10, #32 ) ) REPRESENTATION_CONTEXT ( 'NONE', 'WORKASPACE' ) );
ENDSEC;
END-ISO-10303-21;
