ISO-10303-21;
HEADER;
FILE_DESCRIPTION (( 'STEP AP203' ),
    '1' );
FILE_NAME ('Web Model 11876_13353.step',
    '2020-11-04T13:42:24',
    ( '' ),
    ( '' ),
    'SwSTEP 2.0',
    'SolidWorks 2018',
    '' );
FILE_SCHEMA (( 'CONFIG_CONTROL_DESIGN' ));
ENDSEC;

DATA;
#1 = MECHANICAL_CONTEXT ( 'NONE', #203, 'mechanical' ) ;
#2 = CC_DESIGN_PERSON_AND_ORGANIZATION_ASSIGNMENT ( #226, #39, ( #246 ) ) ;
#3 = ORIENTED_EDGE ( 'NONE', *, *, #47, .T. ) ;
#4 = ORIENTED_EDGE ( 'NONE', *, *, #47, .F. ) ;
#5 = DIRECTION ( 'NONE',  ( -1.000000000000000000, 0.0000000000000000000, 0.0000000000000000000 ) ) ;
#6 = DIRECTION ( 'NONE',  ( 1.000000000000000000, 0.0000000000000000000, 0.0000000000000000000 ) ) ;
#7 = APPROVAL_PERSON_ORGANIZATION ( #192, #93, #202 ) ;
#8 = ORIENTED_EDGE ( 'NONE', *, *, #19, .T. ) ;
#9 = EDGE_CURVE ( 'NONE', #75, #268, #170, .T. ) ;
#10 = VERTEX_POINT ( 'NONE', #92 ) ;
#11 = COORDINATED_UNIVERSAL_TIME_OFFSET ( 5, 0, .BEHIND. ) ;
#12 = VERTEX_POINT ( 'NONE', #29 ) ;
#13 = DIRECTION ( 'NONE',  ( -1.000000000000000000, -0.0000000000000000000, -0.0000000000000000000 ) ) ;
#14 = AXIS2_PLACEMENT_3D ( 'NONE', #25, #110, #243 ) ;
#15 = DIRECTION ( 'NONE',  ( 0.0000000000000000000, 0.0000000000000000000, 1.000000000000000000 ) ) ;
#16 = ORIENTED_EDGE ( 'NONE', *, *, #27, .T. ) ;
#17 = APPLICATION_CONTEXT ( 'configuration controlled 3d designs of mechanical parts and assemblies' ) ;
#18 = APPROVAL_ROLE ( '' ) ;
#19 = EDGE_CURVE ( 'NONE', #229, #268, #154, .T. ) ;
#20 = DATE_AND_TIME ( #79, #26 ) ;
#21 = DIRECTION ( 'NONE',  ( -0.7071067811865107133, 0.0000000000000000000, 0.7071067811865843211 ) ) ;
#22 = ORIENTED_EDGE ( 'NONE', *, *, #195, .T. ) ;
#23 = EDGE_CURVE ( 'NONE', #268, #249, #188, .T. ) ;
#24 = ORIENTED_EDGE ( 'NONE', *, *, #263, .F. ) ;
#25 = CARTESIAN_POINT ( 'NONE',  ( -0.4500000000000002887, 0.0000000000000000000, 0.0000000000000000000 ) ) ;
#26 = LOCAL_TIME ( 8, 42, 24.00000000000000000, #198 ) ;
#27 = EDGE_CURVE ( 'NONE', #12, #75, #201, .T. ) ;
#28 = DIRECTION ( 'NONE',  ( 1.000000000000000000, -0.0000000000000000000, -0.0000000000000000000 ) ) ;
#29 = CARTESIAN_POINT ( 'NONE',  ( 0.5000000000000000000, 1.527746881936323379E-15, -12.45000000000000284 ) ) ;
#30 = CC_DESIGN_PERSON_AND_ORGANIZATION_ASSIGNMENT ( #134, #204, ( #176 ) ) ;
#31 = DIRECTION ( 'NONE',  ( 1.000000000000000000, -0.0000000000000000000, -0.0000000000000000000 ) ) ;
#32 = DATE_AND_TIME ( #240, #52 ) ;
#33 = ORIENTED_EDGE ( 'NONE', *, *, #36, .F. ) ;
#34 = EDGE_LOOP ( 'NONE', ( #197, #22 ) ) ;
#35 = CYLINDRICAL_SURFACE ( 'NONE', #258, 12.50000000000000000 ) ;
#36 = EDGE_CURVE ( 'NONE', #218, #12, #223, .T. ) ;
#37 = DIRECTION ( 'NONE',  ( 1.000000000000000000, -0.0000000000000000000, -0.0000000000000000000 ) ) ;
#38 = EDGE_LOOP ( 'NONE', ( #254, #113, #260, #217 ) ) ;
#39 = PERSON_AND_ORGANIZATION_ROLE ( 'classification_officer' ) ;
#40 = MANIFOLD_SOLID_BREP ( 'Chamfer1', #56 ) ;
#41 = EDGE_CURVE ( 'NONE', #248, #249, #153, .T. ) ;
#42 = DIRECTION ( 'NONE',  ( -1.000000000000000000, 0.0000000000000000000, 0.0000000000000000000 ) ) ;
#43 = LOCAL_TIME ( 8, 42, 24.00000000000000000, #84 ) ;
#44 = PERSON_AND_ORGANIZATION ( #256, #267 ) ;
#45 = AXIS2_PLACEMENT_3D ( 'NONE', #117, #265, #266 ) ;
#46 = VECTOR ( 'NONE', #228, 1000.000000000000000 ) ;
#47 = EDGE_CURVE ( 'NONE', #12, #218, #182, .T. ) ;
#48 = ORIENTED_EDGE ( 'NONE', *, *, #269, .T. ) ;
#49 = ADVANCED_FACE ( 'NONE', ( #207 ), #109, .T. ) ;
#50 = AXIS2_PLACEMENT_3D ( 'NONE', #212, #5, #91 ) ;
#51 = DIRECTION ( 'NONE',  ( -1.000000000000000000, 0.0000000000000000000, 0.0000000000000000000 ) ) ;
#52 = LOCAL_TIME ( 8, 42, 24.00000000000000000, #215 ) ;
#53 = PRODUCT ( 'Web Model 11876_13353', 'Web Model 11876_13353', '', ( #1 ) ) ;
#54 = CYLINDRICAL_SURFACE ( 'NONE', #122, 12.50000000000000000 ) ;
#55 = EDGE_LOOP ( 'NONE', ( #233, #161, #101, #216 ) ) ;
#56 = CLOSED_SHELL ( 'NONE', ( #145, #261, #242, #234, #209, #72, #49, #130 ) ) ;
#57 = AXIS2_PLACEMENT_3D ( 'NONE', #274, #125, #251 ) ;
#58 = CIRCLE ( 'NONE', #111, 12.50000000000000000 ) ;
#59 = CARTESIAN_POINT ( 'NONE',  ( -0.4500000000000002887, 0.0000000000000000000, 0.0000000000000000000 ) ) ;
#60 = UNCERTAINTY_MEASURE_WITH_UNIT (LENGTH_MEASURE( 1.000000000000000082E-05 ), #126, 'distance_accuracy_value', 'NONE');
#61 = DIRECTION ( 'NONE',  ( 0.0000000000000000000, 0.0000000000000000000, -1.000000000000000000 ) ) ;
#62 = PERSON_AND_ORGANIZATION ( #256, #267 ) ;
#63 = ORIENTED_EDGE ( 'NONE', *, *, #41, .F. ) ;
#64 = CC_DESIGN_APPROVAL ( #199, ( #214 ) ) ;
#65 = ORIENTED_EDGE ( 'NONE', *, *, #142, .T. ) ;
#66 = AXIS2_PLACEMENT_3D ( 'NONE', #163, #222, #98 ) ;
#67 = AXIS2_PLACEMENT_3D ( 'NONE', #166, #42, #139 ) ;
#68 = DATE_AND_TIME ( #156, #43 ) ;
#69 = VECTOR ( 'NONE', #21, 1000.000000000000000 ) ;
#70 = EDGE_LOOP ( 'NONE', ( #24, #127, #8, #120 ) ) ;
#71 = EDGE_CURVE ( 'NONE', #75, #248, #58, .T. ) ;
#72 = ADVANCED_FACE ( 'NONE', ( #116 ), #193, .F. ) ;
#73 = ORIENTED_EDGE ( 'NONE', *, *, #9, .T. ) ;
#74 = DIRECTION ( 'NONE',  ( -1.000000000000000000, -0.0000000000000000000, -0.0000000000000000000 ) ) ;
#75 = VERTEX_POINT ( 'NONE', #149 ) ;
#76 = DIRECTION ( 'NONE',  ( 1.000000000000000000, 0.0000000000000000000, 0.0000000000000000000 ) ) ;
#77 = APPROVAL ( #87, 'UNSPECIFIED' ) ;
#78 = CIRCLE ( 'NONE', #155, 12.45000000000000284 ) ;
#79 = CALENDAR_DATE ( 2020, 4, 11 ) ;
#80 = CIRCLE ( 'NONE', #132, 12.50000000000000000 ) ;
#81 = DIRECTION ( 'NONE',  ( 1.000000000000000000, 0.0000000000000000000, 0.0000000000000000000 ) ) ;
#82 = VECTOR ( 'NONE', #74, 1000.000000000000000 ) ;
#83 = CARTESIAN_POINT ( 'NONE',  ( 0.5000000000000000000, 0.0000000000000000000, 0.0000000000000000000 ) ) ;
#84 = COORDINATED_UNIVERSAL_TIME_OFFSET ( 5, 0, .BEHIND. ) ;
#85 = AXIS2_PLACEMENT_3D ( 'NONE', #257, #28, #239 ) ;
#86 = CALENDAR_DATE ( 2020, 4, 11 ) ;
#87 = APPROVAL_STATUS ( 'not_yet_approved' ) ;
#88 = CC_DESIGN_PERSON_AND_ORGANIZATION_ASSIGNMENT ( #140, #164, ( #214 ) ) ;
#89 = FACE_OUTER_BOUND ( 'NONE', #138, .T. ) ;
#90 = ORIENTED_EDGE ( 'NONE', *, *, #27, .F. ) ;
#91 = DIRECTION ( 'NONE',  ( 0.0000000000000000000, 0.0000000000000000000, 1.000000000000000000 ) ) ;
#92 = CARTESIAN_POINT ( 'NONE',  ( -0.5000000000000000000, 1.527746881936323379E-15, 12.45000000000000284 ) ) ;
#93 = APPROVAL ( #99, 'UNSPECIFIED' ) ;
#94 = DATE_AND_TIME ( #205, #232 ) ;
#95 = DATE_AND_TIME ( #86, #148 ) ;
#96 = CC_DESIGN_SECURITY_CLASSIFICATION ( #246, ( #214 ) ) ;
#97 = DIRECTION ( 'NONE',  ( 0.0000000000000000000, 0.0000000000000000000, -1.000000000000000000 ) ) ;
#98 = DIRECTION ( 'NONE',  ( 0.0000000000000000000, 0.0000000000000000000, -1.000000000000000000 ) ) ;
#99 = APPROVAL_STATUS ( 'not_yet_approved' ) ;
#100 = PRODUCT_DEFINITION_SHAPE ( 'NONE', 'NONE',  #176 ) ;
#101 = ORIENTED_EDGE ( 'NONE', *, *, #41, .T. ) ;
#102 = CARTESIAN_POINT ( 'NONE',  ( -0.4500000000000002887, 1.530808498934191521E-15, -12.50000000000000000 ) ) ;
#103 = CARTESIAN_POINT ( 'NONE',  ( 0.5000000000000000000, 0.0000000000000000000, 12.45000000000000284 ) ) ;
#104 =( GEOMETRIC_REPRESENTATION_CONTEXT ( 3 ) GLOBAL_UNCERTAINTY_ASSIGNED_CONTEXT ( ( #60 ) ) GLOBAL_UNIT_ASSIGNED_CONTEXT ( ( #126, #106, #231 ) ) REPRESENTATION_CONTEXT ( 'NONE', 'WORKASPACE' ) );
#105 = CIRCLE ( 'NONE', #66, 12.45000000000000284 ) ;
#106 =( NAMED_UNIT ( * ) PLANE_ANGLE_UNIT ( ) SI_UNIT ( $, .RADIAN. ) );
#107 = VECTOR ( 'NONE', #211, 1000.000000000000000 ) ;
#108 = PRODUCT_RELATED_PRODUCT_CATEGORY ( 'detail', '', ( #53 ) ) ;
#109 = CONICAL_SURFACE ( 'NONE', #50, 12.45000000000000284, 0.7853981633975003485 ) ;
#110 = DIRECTION ( 'NONE',  ( 1.000000000000000000, -0.0000000000000000000, -0.0000000000000000000 ) ) ;
#111 = AXIS2_PLACEMENT_3D ( 'NONE', #171, #51, #190 ) ;
#112 = DIRECTION ( 'NONE',  ( 0.7071067811865597852, 0.0000000000000000000, -0.7071067811865352493 ) ) ;
#113 = ORIENTED_EDGE ( 'NONE', *, *, #263, .T. ) ;
#114 = DIRECTION ( 'NONE',  ( 0.0000000000000000000, 0.0000000000000000000, -1.000000000000000000 ) ) ;
#115 = DIRECTION ( 'NONE',  ( 0.0000000000000000000, 0.0000000000000000000, -1.000000000000000000 ) ) ;
#116 = FACE_OUTER_BOUND ( 'NONE', #34, .T. ) ;
#117 = CARTESIAN_POINT ( 'NONE',  ( 0.4500000000000072276, 0.0000000000000000000, 0.0000000000000000000 ) ) ;
#118 = CARTESIAN_POINT ( 'NONE',  ( -0.4500000000000002887, 0.0000000000000000000, 12.50000000000000000 ) ) ;
#119 = LINE ( 'NONE', #225, #46 ) ;
#120 = ORIENTED_EDGE ( 'NONE', *, *, #181, .F. ) ;
#121 = CARTESIAN_POINT ( 'NONE',  ( 0.5000000000000000000, 0.0000000000000000000, 12.45000000000000284 ) ) ;
#122 = AXIS2_PLACEMENT_3D ( 'NONE', #83, #272, #15 ) ;
#123 = ORIENTED_EDGE ( 'NONE', *, *, #23, .T. ) ;
#124 = CARTESIAN_POINT ( 'NONE',  ( -0.5000000000000000000, 0.0000000000000000000, -12.45000000000000284 ) ) ;
#125 = DIRECTION ( 'NONE',  ( 0.0000000000000000000, 0.0000000000000000000, 1.000000000000000000 ) ) ;
#126 =( LENGTH_UNIT ( ) NAMED_UNIT ( * ) SI_UNIT ( .MILLI., .METRE. ) );
#127 = ORIENTED_EDGE ( 'NONE', *, *, #146, .F. ) ;
#128 = COORDINATED_UNIVERSAL_TIME_OFFSET ( 5, 0, .BEHIND. ) ;
#129 = FACE_OUTER_BOUND ( 'NONE', #38, .T. ) ;
#130 = ADVANCED_FACE ( 'NONE', ( #165 ), #206, .T. ) ;
#131 = DIRECTION ( 'NONE',  ( 1.000000000000000000, 0.0000000000000000000, 0.0000000000000000000 ) ) ;
#132 = AXIS2_PLACEMENT_3D ( 'NONE', #219, #37, #162 ) ;
#133 = DIRECTION ( 'NONE',  ( 0.0000000000000000000, 0.0000000000000000000, -1.000000000000000000 ) ) ;
#134 = PERSON_AND_ORGANIZATION ( #256, #267 ) ;
#135 = VECTOR ( 'NONE', #112, 1000.000000000000000 ) ;
#136 = CC_DESIGN_DATE_AND_TIME_ASSIGNMENT ( #95, #185, ( #176 ) ) ;
#137 = SHAPE_DEFINITION_REPRESENTATION ( #100, #264 ) ;
#138 = EDGE_LOOP ( 'NONE', ( #4, #16, #210, #241 ) ) ;
#139 = DIRECTION ( 'NONE',  ( 0.0000000000000000000, 0.0000000000000000000, 1.000000000000000000 ) ) ;
#140 = PERSON_AND_ORGANIZATION ( #256, #267 ) ;
#141 = APPLICATION_PROTOCOL_DEFINITION ( 'international standard', 'config_control_design', 1994, #17 ) ;
#142 = EDGE_CURVE ( 'NONE', #248, #75, #157, .T. ) ;
#143 = APPROVAL_ROLE ( '' ) ;
#144 = VECTOR ( 'NONE', #173, 1000.000000000000000 ) ;
#145 = ADVANCED_FACE ( 'NONE', ( #129 ), #196, .T. ) ;
#146 = EDGE_CURVE ( 'NONE', #229, #10, #78, .T. ) ;
#147 = APPROVAL_DATE_TIME ( #94, #77 ) ;
#148 = LOCAL_TIME ( 8, 42, 24.00000000000000000, #128 ) ;
#149 = CARTESIAN_POINT ( 'NONE',  ( 0.4500000000000072276, 1.530808498934191521E-15, -12.50000000000000000 ) ) ;
#150 = CARTESIAN_POINT ( 'NONE',  ( -0.4500000000000002887, 0.0000000000000000000, -12.50000000000000000 ) ) ;
#151 = CARTESIAN_POINT ( 'NONE',  ( 0.5000000000000000000, 1.524685264938455237E-15, -12.45000000000000284 ) ) ;
#152 = PERSON_AND_ORGANIZATION ( #256, #267 ) ;
#153 = LINE ( 'NONE', #174, #82 ) ;
#154 = LINE ( 'NONE', #150, #135 ) ;
#155 = AXIS2_PLACEMENT_3D ( 'NONE', #160, #13, #61 ) ;
#156 = CALENDAR_DATE ( 2020, 4, 11 ) ;
#157 = CIRCLE ( 'NONE', #45, 12.50000000000000000 ) ;
#158 = CARTESIAN_POINT ( 'NONE',  ( 0.5000000000000000000, 0.0000000000000000000, 0.0000000000000000000 ) ) ;
#159 = CC_DESIGN_PERSON_AND_ORGANIZATION_ASSIGNMENT ( #62, #168, ( #53 ) ) ;
#160 = CARTESIAN_POINT ( 'NONE',  ( -0.5000000000000000000, 0.0000000000000000000, 0.0000000000000000000 ) ) ;
#161 = ORIENTED_EDGE ( 'NONE', *, *, #71, .T. ) ;
#162 = DIRECTION ( 'NONE',  ( 0.0000000000000000000, 0.0000000000000000000, -1.000000000000000000 ) ) ;
#163 = CARTESIAN_POINT ( 'NONE',  ( -0.5000000000000000000, 0.0000000000000000000, 0.0000000000000000000 ) ) ;
#164 = PERSON_AND_ORGANIZATION_ROLE ( 'design_supplier' ) ;
#165 = FACE_OUTER_BOUND ( 'NONE', #70, .T. ) ;
#166 = CARTESIAN_POINT ( 'NONE',  ( 0.5000000000000000000, 0.0000000000000000000, 0.0000000000000000000 ) ) ;
#167 = APPROVAL_STATUS ( 'not_yet_approved' ) ;
#168 = PERSON_AND_ORGANIZATION_ROLE ( 'design_owner' ) ;
#169 = EDGE_LOOP ( 'NONE', ( #90, #33, #48, #180 ) ) ;
#170 = LINE ( 'NONE', #194, #107 ) ;
#171 = CARTESIAN_POINT ( 'NONE',  ( 0.4500000000000072276, 0.0000000000000000000, 0.0000000000000000000 ) ) ;
#172 = DESIGN_CONTEXT ( 'detailed design', #17, 'design' ) ;
#173 = DIRECTION ( 'NONE',  ( -0.7071067811865107133, 8.659560562355383988E-17, -0.7071067811865843211 ) ) ;
#174 = CARTESIAN_POINT ( 'NONE',  ( 0.5000000000000000000, 0.0000000000000000000, 12.50000000000000000 ) ) ;
#175 = FACE_OUTER_BOUND ( 'NONE', #177, .T. ) ;
#176 = PRODUCT_DEFINITION ( 'UNKNOWN', '', #214, #172 ) ;
#177 = EDGE_LOOP ( 'NONE', ( #65, #73, #123, #63 ) ) ;
#178 = ORIENTED_EDGE ( 'NONE', *, *, #36, .T. ) ;
#179 = PERSON_AND_ORGANIZATION ( #256, #267 ) ;
#180 = ORIENTED_EDGE ( 'NONE', *, *, #71, .F. ) ;
#181 = EDGE_CURVE ( 'NONE', #249, #268, #80, .T. ) ;
#182 = CIRCLE ( 'NONE', #262, 12.45000000000000284 ) ;
#183 = CARTESIAN_POINT ( 'NONE',  ( 0.5000000000000000000, 0.0000000000000000000, 0.0000000000000000000 ) ) ;
#184 = PERSON_AND_ORGANIZATION_ROLE ( 'creator' ) ;
#185 = DATE_TIME_ROLE ( 'creation_date' ) ;
#186 = CC_DESIGN_APPROVAL ( #93, ( #176 ) ) ;
#187 = APPROVAL_DATE_TIME ( #32, #93 ) ;
#188 = CIRCLE ( 'NONE', #85, 12.50000000000000000 ) ;
#189 = CC_DESIGN_DATE_AND_TIME_ASSIGNMENT ( #68, #252, ( #246 ) ) ;
#190 = DIRECTION ( 'NONE',  ( 0.0000000000000000000, 0.0000000000000000000, -1.000000000000000000 ) ) ;
#191 = APPROVAL_PERSON_ORGANIZATION ( #152, #77, #143 ) ;
#192 = PERSON_AND_ORGANIZATION ( #256, #267 ) ;
#193 = PLANE ( 'NONE',  #221 ) ;
#194 = CARTESIAN_POINT ( 'NONE',  ( 0.5000000000000000000, 1.530808498934191521E-15, -12.50000000000000000 ) ) ;
#195 = EDGE_CURVE ( 'NONE', #10, #229, #105, .T. ) ;
#196 = CONICAL_SURFACE ( 'NONE', #208, 12.50000000000000000, 0.7853981633974309595 ) ;
#197 = ORIENTED_EDGE ( 'NONE', *, *, #146, .T. ) ;
#198 = COORDINATED_UNIVERSAL_TIME_OFFSET ( 5, 0, .BEHIND. ) ;
#199 = APPROVAL ( #167, 'UNSPECIFIED' ) ;
#200 = DIRECTION ( 'NONE',  ( 0.0000000000000000000, 0.0000000000000000000, 1.000000000000000000 ) ) ;
#201 = LINE ( 'NONE', #151, #144 ) ;
#202 = APPROVAL_ROLE ( '' ) ;
#203 = APPLICATION_CONTEXT ( 'configuration controlled 3d designs of mechanical parts and assemblies' ) ;
#204 = PERSON_AND_ORGANIZATION_ROLE ( 'creator' ) ;
#205 = CALENDAR_DATE ( 2020, 4, 11 ) ;
#206 = CONICAL_SURFACE ( 'NONE', #14, 12.50000000000000000, 0.7853981633974309595 ) ;
#207 = FACE_OUTER_BOUND ( 'NONE', #169, .T. ) ;
#208 = AXIS2_PLACEMENT_3D ( 'NONE', #59, #31, #115 ) ;
#209 = ADVANCED_FACE ( 'NONE', ( #273 ), #220, .T. ) ;
#210 = ORIENTED_EDGE ( 'NONE', *, *, #142, .F. ) ;
#211 = DIRECTION ( 'NONE',  ( -1.000000000000000000, -0.0000000000000000000, -0.0000000000000000000 ) ) ;
#212 = CARTESIAN_POINT ( 'NONE',  ( 0.5000000000000000000, 0.0000000000000000000, 0.0000000000000000000 ) ) ;
#213 = DIRECTION ( 'NONE',  ( 0.0000000000000000000, 0.0000000000000000000, -1.000000000000000000 ) ) ;
#214 = PRODUCT_DEFINITION_FORMATION_WITH_SPECIFIED_SOURCE ( 'ANY', '', #53, .NOT_KNOWN. ) ;
#215 = COORDINATED_UNIVERSAL_TIME_OFFSET ( 5, 0, .BEHIND. ) ;
#216 = ORIENTED_EDGE ( 'NONE', *, *, #181, .T. ) ;
#217 = ORIENTED_EDGE ( 'NONE', *, *, #19, .F. ) ;
#218 = VERTEX_POINT ( 'NONE', #121 ) ;
#219 = CARTESIAN_POINT ( 'NONE',  ( -0.4500000000000002887, 0.0000000000000000000, 0.0000000000000000000 ) ) ;
#220 = PLANE ( 'NONE',  #250 ) ;
#221 = AXIS2_PLACEMENT_3D ( 'NONE', #235, #6, #213 ) ;
#222 = DIRECTION ( 'NONE',  ( -1.000000000000000000, -0.0000000000000000000, -0.0000000000000000000 ) ) ;
#223 = CIRCLE ( 'NONE', #253, 12.45000000000000284 ) ;
#224 = APPLICATION_PROTOCOL_DEFINITION ( 'international standard', 'config_control_design', 1994, #203 ) ;
#225 = CARTESIAN_POINT ( 'NONE',  ( -0.4500000000000002887, 1.530808498934191521E-15, 12.50000000000000000 ) ) ;
#226 = PERSON_AND_ORGANIZATION ( #256, #267 ) ;
#227 = FACE_OUTER_BOUND ( 'NONE', #55, .T. ) ;
#228 = DIRECTION ( 'NONE',  ( 0.7071067811865597852, 8.659560562354782482E-17, 0.7071067811865352493 ) ) ;
#229 = VERTEX_POINT ( 'NONE', #124 ) ;
#230 = CC_DESIGN_PERSON_AND_ORGANIZATION_ASSIGNMENT ( #179, #184, ( #214 ) ) ;
#231 =( NAMED_UNIT ( * ) SI_UNIT ( $, .STERADIAN. ) SOLID_ANGLE_UNIT ( ) );
#232 = LOCAL_TIME ( 8, 42, 24.00000000000000000, #11 ) ;
#233 = ORIENTED_EDGE ( 'NONE', *, *, #9, .F. ) ;
#234 = ADVANCED_FACE ( 'NONE', ( #227 ), #54, .T. ) ;
#235 = CARTESIAN_POINT ( 'NONE',  ( -0.5000000000000000000, 0.0000000000000000000, 0.0000000000000000000 ) ) ;
#236 = CARTESIAN_POINT ( 'NONE',  ( 0.5000000000000000000, 0.0000000000000000000, 0.0000000000000000000 ) ) ;
#237 = APPROVAL_DATE_TIME ( #20, #199 ) ;
#238 = EDGE_LOOP ( 'NONE', ( #178, #3 ) ) ;
#239 = DIRECTION ( 'NONE',  ( 0.0000000000000000000, 0.0000000000000000000, -1.000000000000000000 ) ) ;
#240 = CALENDAR_DATE ( 2020, 4, 11 ) ;
#241 = ORIENTED_EDGE ( 'NONE', *, *, #269, .F. ) ;
#242 = ADVANCED_FACE ( 'NONE', ( #175 ), #35, .T. ) ;
#243 = DIRECTION ( 'NONE',  ( 0.0000000000000000000, 0.0000000000000000000, -1.000000000000000000 ) ) ;
#244 = CONICAL_SURFACE ( 'NONE', #67, 12.45000000000000284, 0.7853981633975003485 ) ;
#245 = CARTESIAN_POINT ( 'NONE',  ( 0.4500000000000072276, 0.0000000000000000000, 12.50000000000000000 ) ) ;
#246 = SECURITY_CLASSIFICATION ( '', '', #275 ) ;
#247 = LINE ( 'NONE', #103, #69 ) ;
#248 = VERTEX_POINT ( 'NONE', #245 ) ;
#249 = VERTEX_POINT ( 'NONE', #118 ) ;
#250 = AXIS2_PLACEMENT_3D ( 'NONE', #183, #81, #97 ) ;
#251 = DIRECTION ( 'NONE',  ( 1.000000000000000000, 0.0000000000000000000, 0.0000000000000000000 ) ) ;
#252 = DATE_TIME_ROLE ( 'classification_date' ) ;
#253 = AXIS2_PLACEMENT_3D ( 'NONE', #236, #76, #114 ) ;
#254 = ORIENTED_EDGE ( 'NONE', *, *, #195, .F. ) ;
#255 = APPROVAL_PERSON_ORGANIZATION ( #44, #199, #18 ) ;
#256 = PERSON ( 'UNSPECIFIED', 'UNSPECIFIED', 'UNSPECIFIED', ('UNSPECIFIED'), ('UNSPECIFIED'), ('UNSPECIFIED') ) ;
#257 = CARTESIAN_POINT ( 'NONE',  ( -0.4500000000000002887, 0.0000000000000000000, 0.0000000000000000000 ) ) ;
#258 = AXIS2_PLACEMENT_3D ( 'NONE', #158, #270, #200 ) ;
#259 = CARTESIAN_POINT ( 'NONE',  ( 0.5000000000000000000, 0.0000000000000000000, 0.0000000000000000000 ) ) ;
#260 = ORIENTED_EDGE ( 'NONE', *, *, #23, .F. ) ;
#261 = ADVANCED_FACE ( 'NONE', ( #89 ), #244, .T. ) ;
#262 = AXIS2_PLACEMENT_3D ( 'NONE', #259, #131, #133 ) ;
#263 = EDGE_CURVE ( 'NONE', #10, #249, #119, .T. ) ;
#264 = ADVANCED_BREP_SHAPE_REPRESENTATION ( 'Web Model 11876_13353', ( #40, #57 ), #104 ) ;
#265 = DIRECTION ( 'NONE',  ( -1.000000000000000000, 0.0000000000000000000, 0.0000000000000000000 ) ) ;
#266 = DIRECTION ( 'NONE',  ( 0.0000000000000000000, 0.0000000000000000000, -1.000000000000000000 ) ) ;
#267 = ORGANIZATION ( 'UNSPECIFIED', 'UNSPECIFIED', '' ) ;
#268 = VERTEX_POINT ( 'NONE', #102 ) ;
#269 = EDGE_CURVE ( 'NONE', #218, #248, #247, .T. ) ;
#270 = DIRECTION ( 'NONE',  ( -1.000000000000000000, -0.0000000000000000000, -0.0000000000000000000 ) ) ;
#271 = CC_DESIGN_APPROVAL ( #77, ( #246 ) ) ;
#272 = DIRECTION ( 'NONE',  ( -1.000000000000000000, -0.0000000000000000000, -0.0000000000000000000 ) ) ;
#273 = FACE_OUTER_BOUND ( 'NONE', #238, .T. ) ;
#274 = CARTESIAN_POINT ( 'NONE',  ( 0.0000000000000000000, 0.0000000000000000000, 0.0000000000000000000 ) ) ;
#275 = SECURITY_CLASSIFICATION_LEVEL ( 'unclassified' ) ;
ENDSEC;
END-ISO-10303-21;
