ISO-10303-21;
HEADER;
FILE_DESCRIPTION (( 'STEP AP214' ),
    '1' );
FILE_NAME ('19064-E0W.STEP',
    '2009-12-21T17:01:01',
    ( ' ' ),
    ( ' ' ),
    'SwSTEP 2.0',
    'SolidWorks 2009',
    '' );
FILE_SCHEMA (( 'AUTOMOTIVE_DESIGN' ));
ENDSEC;

DATA;
#1 =( NAMED_UNIT ( * ) SI_UNIT ( $, .STERADIAN. ) SOLID_ANGLE_UNIT ( ) );
#2 = CARTESIAN_POINT ( 'NONE',  ( 0.0000000000000000000, 0.0000000000000000000, -101.5999999999999900 ) ) ;
#3 = AXIS2_PLACEMENT_3D ( 'NONE', #2, #4, #5 ) ;
#4 = DIRECTION ( 'NONE',  ( -1.000000000000000000, 0.0000000000000000000, 0.0000000000000000000 ) ) ;
#5 = DIRECTION ( 'NONE',  ( 0.0000000000000000000, 1.000000000000000000, 0.0000000000000000000 ) ) ;
#6 = SPHERICAL_SURFACE ( 'NONE', #3, 103.0000000000000000 ) ;
#7 =( GEOMETRIC_REPRESENTATION_CONTEXT ( 3 ) GLOBAL_UNCERTAINTY_ASSIGNED_CONTEXT ( ( #8 ) ) GLOBAL_UNIT_ASSIGNED_CONTEXT ( ( #180, #179, #1 ) ) REPRESENTATION_CONTEXT ( 'NONE', 'WORKASPACE' ) );
#8 = UNCERTAINTY_MEASURE_WITH_UNIT (LENGTH_MEASURE( 1.000000000000000100E-005 ), #180, 'distance_accuracy_value', 'NONE');
#9 =( GEOMETRIC_REPRESENTATION_CONTEXT ( 3 ) GLOBAL_UNCERTAINTY_ASSIGNED_CONTEXT ( ( #82 ) ) GLOBAL_UNIT_ASSIGNED_CONTEXT ( ( #52, #14, #45 ) ) REPRESENTATION_CONTEXT ( 'NONE', 'WORKASPACE' ) );
#10 = FILL_AREA_STYLE_COLOUR ( '', #81 ) ;
#11 = SURFACE_SIDE_STYLE ('',( #71 ) ) ;
#12 = CARTESIAN_POINT ( 'NONE',  ( -12.50000000000000000, 1.530757942277971600E-015, 0.6386913061782097900 ) ) ;
#13 = MECHANICAL_DESIGN_GEOMETRIC_PRESENTATION_REPRESENTATION (  '', ( #83 ), #16 ) ;
#14 =( NAMED_UNIT ( * ) PLANE_ANGLE_UNIT ( ) SI_UNIT ( $, .RADIAN. ) );
#15 = FACE_OUTER_BOUND ( 'NONE', #228, .T. ) ;
#16 =( GEOMETRIC_REPRESENTATION_CONTEXT ( 3 ) GLOBAL_UNCERTAINTY_ASSIGNED_CONTEXT ( ( #38 ) ) GLOBAL_UNIT_ASSIGNED_CONTEXT ( ( #28, #22, #32 ) ) REPRESENTATION_CONTEXT ( 'NONE', 'WORKASPACE' ) );
#17 = DIRECTION ( 'NONE',  ( 1.000000000000000000, 0.0000000000000000000, 0.0000000000000000000 ) ) ;
#18 = DIRECTION ( 'NONE',  ( -0.0000000000000000000, -0.0000000000000000000, 1.000000000000000000 ) ) ;
#19 = CARTESIAN_POINT ( 'NONE',  ( 0.0000000000000000000, 0.0000000000000000000, 0.6386913061782097900 ) ) ;
#20 = AXIS2_PLACEMENT_3D ( 'NONE', #19, #18, #17 ) ;
#21 = CIRCLE ( 'NONE', #20, 12.50000000000000000 ) ;
#22 =( NAMED_UNIT ( * ) PLANE_ANGLE_UNIT ( ) SI_UNIT ( $, .RADIAN. ) );
#23 = LINE ( 'NONE', #60, #59 ) ;
#24 = DIRECTION ( 'NONE',  ( 1.000000000000000000, 0.0000000000000000000, 0.0000000000000000000 ) ) ;
#25 = DIRECTION ( 'NONE',  ( -0.0000000000000000000, -0.0000000000000000000, 1.000000000000000000 ) ) ;
#26 = CARTESIAN_POINT ( 'NONE',  ( 0.0000000000000000000, 0.0000000000000000000, -1.400000000000000100 ) ) ;
#27 = DIRECTION ( 'NONE',  ( 1.000000000000000000, 0.0000000000000000000, 0.0000000000000000000 ) ) ;
#28 =( LENGTH_UNIT ( ) NAMED_UNIT ( * ) SI_UNIT ( .MILLI., .METRE. ) );
#29 = CIRCLE ( 'NONE', #65, 12.50000000000000000 ) ;
#30 = CARTESIAN_POINT ( 'NONE',  ( 0.0000000000000000000, 12.50000000000000400, 0.6386913061782071300 ) ) ;
#31 = CIRCLE ( 'NONE', #66, 12.50000000000000000 ) ;
#32 =( NAMED_UNIT ( * ) SI_UNIT ( $, .STERADIAN. ) SOLID_ANGLE_UNIT ( ) );
#33 = FACE_OUTER_BOUND ( 'NONE', #248, .T. ) ;
#34 = DIRECTION ( 'NONE',  ( -0.0000000000000000000, -0.0000000000000000000, 1.000000000000000000 ) ) ;
#35 = VECTOR ( 'NONE', #34, 1000.000000000000000 ) ;
#36 = CARTESIAN_POINT ( 'NONE',  ( 12.50000000000000000, 0.0000000000000000000, 4.308132045400366600 ) ) ;
#37 = LINE ( 'NONE', #36, #35 ) ;
#38 = UNCERTAINTY_MEASURE_WITH_UNIT (LENGTH_MEASURE( 1.000000000000000100E-005 ), #28, 'distance_accuracy_value', 'NONE');
#39 = AXIS2_PLACEMENT_3D ( 'NONE', #26, #25, #24 ) ;
#40 = CIRCLE ( 'NONE', #39, 12.50000000000000000 ) ;
#41 = DIRECTION ( 'NONE',  ( -0.0000000000000000000, -0.0000000000000000000, 1.000000000000000000 ) ) ;
#42 = CARTESIAN_POINT ( 'NONE',  ( 0.0000000000000000000, 0.0000000000000000000, -1.400000000000000100 ) ) ;
#43 = AXIS2_PLACEMENT_3D ( 'NONE', #42, #41, #51 ) ;
#44 = CIRCLE ( 'NONE', #43, 12.50000000000000000 ) ;
#45 =( NAMED_UNIT ( * ) SI_UNIT ( $, .STERADIAN. ) SOLID_ANGLE_UNIT ( ) );
#46 = CARTESIAN_POINT ( 'NONE',  ( 0.0000000000000000000, 0.0000000000000000000, 0.6386913061782097900 ) ) ;
#47 = DIRECTION ( 'NONE',  ( -0.0000000000000000000, -0.0000000000000000000, 1.000000000000000000 ) ) ;
#48 = CARTESIAN_POINT ( 'NONE',  ( 12.50000000000000000, 0.0000000000000000000, -1.400000000000000100 ) ) ;
#49 = FILL_AREA_STYLE ('',( #10 ) ) ;
#50 = CARTESIAN_POINT ( 'NONE',  ( -12.50000000000000000, 1.530757942277971600E-015, -1.400000000000000100 ) ) ;
#51 = DIRECTION ( 'NONE',  ( 1.000000000000000000, 0.0000000000000000000, 0.0000000000000000000 ) ) ;
#52 =( LENGTH_UNIT ( ) NAMED_UNIT ( * ) SI_UNIT ( .MILLI., .METRE. ) );
#53 = MECHANICAL_DESIGN_GEOMETRIC_PRESENTATION_REPRESENTATION (  '', ( #73 ), #9 ) ;
#54 = PRESENTATION_LAYER_ASSIGNMENT (  '', '', ( #73 ) ) ;
#55 = AXIS2_PLACEMENT_3D ( 'NONE', #70, #69, #68 ) ;
#56 = CYLINDRICAL_SURFACE ( 'NONE', #55, 12.50000000000000000 ) ;
#57 = SURFACE_STYLE_USAGE ( .BOTH. , #11 ) ;
#58 = DIRECTION ( 'NONE',  ( -0.0000000000000000000, -0.0000000000000000000, 1.000000000000000000 ) ) ;
#59 = VECTOR ( 'NONE', #58, 1000.000000000000000 ) ;
#60 = CARTESIAN_POINT ( 'NONE',  ( -12.50000000000000000, 1.530757942277971600E-015, 4.308132045400366600 ) ) ;
#61 = CARTESIAN_POINT ( 'NONE',  ( 12.50000000000000000, 0.0000000000000000000, 0.6386913061782097900 ) ) ;
#62 = DIRECTION ( 'NONE',  ( 1.000000000000000000, 0.0000000000000000000, 0.0000000000000000000 ) ) ;
#63 = DIRECTION ( 'NONE',  ( -0.0000000000000000000, -0.0000000000000000000, 1.000000000000000000 ) ) ;
#64 = CARTESIAN_POINT ( 'NONE',  ( 0.0000000000000000000, 0.0000000000000000000, 0.6386913061782097900 ) ) ;
#65 = AXIS2_PLACEMENT_3D ( 'NONE', #64, #63, #62 ) ;
#66 = AXIS2_PLACEMENT_3D ( 'NONE', #46, #47, #27 ) ;
#67 = PRESENTATION_LAYER_ASSIGNMENT (  '', '', ( #83 ) ) ;
#68 = DIRECTION ( 'NONE',  ( 1.000000000000000000, 0.0000000000000000000, 0.0000000000000000000 ) ) ;
#69 = DIRECTION ( 'NONE',  ( -0.0000000000000000000, -0.0000000000000000000, 1.000000000000000000 ) ) ;
#70 = CARTESIAN_POINT ( 'NONE',  ( 0.0000000000000000000, 0.0000000000000000000, 4.308132045400366600 ) ) ;
#71 = SURFACE_STYLE_FILL_AREA ( #49 ) ;
#72 = PRESENTATION_STYLE_ASSIGNMENT (( #57 ) ) ;
#73 = STYLED_ITEM ( 'NONE', ( #74 ), #247 ) ;
#74 = PRESENTATION_STYLE_ASSIGNMENT (( #75 ) ) ;
#75 = SURFACE_STYLE_USAGE ( .BOTH. , #76 ) ;
#76 = SURFACE_SIDE_STYLE ('',( #77 ) ) ;
#77 = SURFACE_STYLE_FILL_AREA ( #78 ) ;
#78 = FILL_AREA_STYLE ('',( #80 ) ) ;
#79 = COLOUR_RGB ( '',0.9568627450980391500, 0.9490196078431372100, 0.9607843137254902200 ) ;
#80 = FILL_AREA_STYLE_COLOUR ( '', #79 ) ;
#81 = COLOUR_RGB ( '',0.9568627450980391500, 0.9490196078431372100, 0.9607843137254902200 ) ;
#82 = UNCERTAINTY_MEASURE_WITH_UNIT (LENGTH_MEASURE( 1.000000000000000100E-005 ), #52, 'distance_accuracy_value', 'NONE');
#83 = STYLED_ITEM ( 'NONE', ( #72 ), #227 ) ;
#84 = CARTESIAN_POINT ( 'NONE',  ( 0.0000000000000000000, 0.0000000000000000000, 0.6386913061782097900 ) ) ;
#85 = DIRECTION ( 'NONE',  ( -1.224606353822377300E-016, -1.000000000000000000, 0.0000000000000000000 ) ) ;
#86 = AXIS2_PLACEMENT_3D ( 'NONE', #84, #97, #90 ) ;
#87 = CIRCLE ( 'NONE', #86, 12.50000000000000000 ) ;
#88 = CARTESIAN_POINT ( 'NONE',  ( 0.0000000000000000000, 0.0000000000000000000, -101.5999999999999900 ) ) ;
#89 = DIRECTION ( 'NONE',  ( -1.000000000000000000, 0.0000000000000000000, 0.0000000000000000000 ) ) ;
#90 = DIRECTION ( 'NONE',  ( 1.000000000000000000, 0.0000000000000000000, 0.0000000000000000000 ) ) ;
#91 = CARTESIAN_POINT ( 'NONE',  ( -1.530757942277971800E-015, -12.50000000000000400, 0.6386913061782071300 ) ) ;
#92 = CARTESIAN_POINT ( 'NONE',  ( 0.0000000000000000000, 0.0000000000000000000, -101.5999999999999900 ) ) ;
#93 = AXIS2_PLACEMENT_3D ( 'NONE', #92, #96, #85 ) ;
#94 = CIRCLE ( 'NONE', #93, 103.0000000000000000 ) ;
#95 = DIRECTION ( 'NONE',  ( 0.0000000000000000000, 1.000000000000000000, 0.0000000000000000000 ) ) ;
#96 = DIRECTION ( 'NONE',  ( -1.000000000000000000, 1.224606353822377300E-016, 0.0000000000000000000 ) ) ;
#97 = DIRECTION ( 'NONE',  ( -0.0000000000000000000, -0.0000000000000000000, 1.000000000000000000 ) ) ;
#98 = AXIS2_PLACEMENT_3D ( 'NONE', #88, #89, #95 ) ;
#99 = CARTESIAN_POINT ( 'NONE',  ( 0.0000000000000000000, 6.306722722185242900E-015, 1.399999999999998600 ) ) ;
#100 = SPHERICAL_SURFACE ( 'NONE', #98, 103.0000000000000000 ) ;
#101 = DIRECTION ( 'NONE',  ( -0.0000000000000000000, -0.0000000000000000000, 1.000000000000000000 ) ) ;
#102 = CYLINDRICAL_SURFACE ( 'NONE', #115, 12.50000000000000000 ) ;
#103 =( NAMED_UNIT ( * ) PLANE_ANGLE_UNIT ( ) SI_UNIT ( $, .RADIAN. ) );
#104 =( NAMED_UNIT ( * ) PLANE_ANGLE_UNIT ( ) SI_UNIT ( $, .RADIAN. ) );
#105 = ADVANCED_BREP_SHAPE_REPRESENTATION ( '19064-E0W', ( #258, #174 ), #129 ) ;
#106 = CIRCLE ( 'NONE', #154, 103.0000000000000100 ) ;
#107 = SURFACE_STYLE_FILL_AREA ( #108 ) ;
#108 = FILL_AREA_STYLE ('',( #110 ) ) ;
#109 = COLOUR_RGB ( '',0.9568627450980391500, 0.9490196078431372100, 0.9607843137254902200 ) ;
#110 = FILL_AREA_STYLE_COLOUR ( '', #109 ) ;
#111 = FACE_OUTER_BOUND ( 'NONE', #260, .T. ) ;
#112 = DIRECTION ( 'NONE',  ( 1.000000000000000000, 0.0000000000000000000, 0.0000000000000000000 ) ) ;
#113 = CARTESIAN_POINT ( 'NONE',  ( 0.0000000000000000000, 0.0000000000000000000, -101.5999999999999900 ) ) ;
#114 = CARTESIAN_POINT ( 'NONE',  ( 0.0000000000000000000, 0.0000000000000000000, 4.308132045400366600 ) ) ;
#115 = AXIS2_PLACEMENT_3D ( 'NONE', #114, #101, #140 ) ;
#116 = PRESENTATION_STYLE_ASSIGNMENT (( #117 ) ) ;
#117 = SURFACE_STYLE_USAGE ( .BOTH. , #118 ) ;
#118 = SURFACE_SIDE_STYLE ('',( #119 ) ) ;
#119 = SURFACE_STYLE_FILL_AREA ( #120 ) ;
#120 = FILL_AREA_STYLE ('',( #121 ) ) ;
#121 = FILL_AREA_STYLE_COLOUR ( '', #122 ) ;
#122 = COLOUR_RGB ( '',0.7960784313725489700, 0.8235294117647058400, 0.9372549019607843100 ) ;
#123 = FILL_AREA_STYLE_COLOUR ( '', #161 ) ;
#124 = DIRECTION ( 'NONE',  ( 0.0000000000000000000, 0.0000000000000000000, -1.000000000000000000 ) ) ;
#125 = SURFACE_STYLE_USAGE ( .BOTH. , #126 ) ;
#126 = SURFACE_SIDE_STYLE ('',( #144 ) ) ;
#127 = MECHANICAL_DESIGN_GEOMETRIC_PRESENTATION_REPRESENTATION (  '', ( #135 ), #139 ) ;
#128 = PRESENTATION_LAYER_ASSIGNMENT (  '', '', ( #135 ) ) ;
#129 =( GEOMETRIC_REPRESENTATION_CONTEXT ( 3 ) GLOBAL_UNCERTAINTY_ASSIGNED_CONTEXT ( ( #137 ) ) GLOBAL_UNIT_ASSIGNED_CONTEXT ( ( #159, #149, #138 ) ) REPRESENTATION_CONTEXT ( 'NONE', 'WORKASPACE' ) );
#130 =( GEOMETRIC_REPRESENTATION_CONTEXT ( 3 ) GLOBAL_UNCERTAINTY_ASSIGNED_CONTEXT ( ( #150 ) ) GLOBAL_UNIT_ASSIGNED_CONTEXT ( ( #160, #104, #155 ) ) REPRESENTATION_CONTEXT ( 'NONE', 'WORKASPACE' ) );
#131 = PRESENTATION_STYLE_ASSIGNMENT (( #132 ) ) ;
#132 = SURFACE_STYLE_USAGE ( .BOTH. , #133 ) ;
#133 = SURFACE_SIDE_STYLE ('',( #107 ) ) ;
#134 =( NAMED_UNIT ( * ) SI_UNIT ( $, .STERADIAN. ) SOLID_ANGLE_UNIT ( ) );
#135 = STYLED_ITEM ( 'NONE', ( #136 ), #258 ) ;
#136 = PRESENTATION_STYLE_ASSIGNMENT (( #125 ) ) ;
#137 = UNCERTAINTY_MEASURE_WITH_UNIT (LENGTH_MEASURE( 1.000000000000000100E-005 ), #159, 'distance_accuracy_value', 'NONE');
#138 =( NAMED_UNIT ( * ) SI_UNIT ( $, .STERADIAN. ) SOLID_ANGLE_UNIT ( ) );
#139 =( GEOMETRIC_REPRESENTATION_CONTEXT ( 3 ) GLOBAL_UNCERTAINTY_ASSIGNED_CONTEXT ( ( #158 ) ) GLOBAL_UNIT_ASSIGNED_CONTEXT ( ( #156, #103, #134 ) ) REPRESENTATION_CONTEXT ( 'NONE', 'WORKASPACE' ) );
#140 = DIRECTION ( 'NONE',  ( 1.000000000000000000, 0.0000000000000000000, 0.0000000000000000000 ) ) ;
#141 = MECHANICAL_DESIGN_GEOMETRIC_PRESENTATION_REPRESENTATION (  '', ( #143 ), #173 ) ;
#142 = PRESENTATION_LAYER_ASSIGNMENT (  '', '', ( #143 ) ) ;
#143 = STYLED_ITEM ( 'NONE', ( #116 ), #105 ) ;
#144 = SURFACE_STYLE_FILL_AREA ( #145 ) ;
#145 = FILL_AREA_STYLE ('',( #123 ) ) ;
#146 = MECHANICAL_DESIGN_GEOMETRIC_PRESENTATION_REPRESENTATION (  '', ( #148 ), #130 ) ;
#147 = PRESENTATION_LAYER_ASSIGNMENT (  '', '', ( #148 ) ) ;
#148 = STYLED_ITEM ( 'NONE', ( #131 ), #259 ) ;
#149 =( NAMED_UNIT ( * ) PLANE_ANGLE_UNIT ( ) SI_UNIT ( $, .RADIAN. ) );
#150 = UNCERTAINTY_MEASURE_WITH_UNIT (LENGTH_MEASURE( 1.000000000000000100E-005 ), #160, 'distance_accuracy_value', 'NONE');
#151 =( LENGTH_UNIT ( ) NAMED_UNIT ( * ) SI_UNIT ( .MILLI., .METRE. ) );
#152 =( NAMED_UNIT ( * ) SI_UNIT ( $, .STERADIAN. ) SOLID_ANGLE_UNIT ( ) );
#153 =( NAMED_UNIT ( * ) PLANE_ANGLE_UNIT ( ) SI_UNIT ( $, .RADIAN. ) );
#154 = AXIS2_PLACEMENT_3D ( 'NONE', #113, #112, #124 ) ;
#155 =( NAMED_UNIT ( * ) SI_UNIT ( $, .STERADIAN. ) SOLID_ANGLE_UNIT ( ) );
#156 =( LENGTH_UNIT ( ) NAMED_UNIT ( * ) SI_UNIT ( .MILLI., .METRE. ) );
#157 = UNCERTAINTY_MEASURE_WITH_UNIT (LENGTH_MEASURE( 1.000000000000000100E-005 ), #151, 'distance_accuracy_value', 'NONE');
#158 = UNCERTAINTY_MEASURE_WITH_UNIT (LENGTH_MEASURE( 1.000000000000000100E-005 ), #156, 'distance_accuracy_value', 'NONE');
#159 =( LENGTH_UNIT ( ) NAMED_UNIT ( * ) SI_UNIT ( .MILLI., .METRE. ) );
#160 =( LENGTH_UNIT ( ) NAMED_UNIT ( * ) SI_UNIT ( .MILLI., .METRE. ) );
#161 = COLOUR_RGB ( '',0.7960784313725489700, 0.8235294117647058400, 0.9372549019607843100 ) ;
#162 = PRODUCT ( '19064-E0W', '19064-E0W', '', ( #163 ) ) ;
#163 = PRODUCT_CONTEXT ( 'NONE', #167, 'mechanical' ) ;
#164 = APPLICATION_PROTOCOL_DEFINITION ( 'draft international standard', 'automotive_design', 1998, #167 ) ;
#165 = CARTESIAN_POINT ( 'NONE',  ( 0.0000000000000000000, 0.0000000000000000000, 0.0000000000000000000 ) ) ;
#166 = DIRECTION ( 'NONE',  ( 1.000000000000000000, 0.0000000000000000000, 0.0000000000000000000 ) ) ;
#167 = APPLICATION_CONTEXT ( 'automotive_design' ) ;
#168 = DIRECTION ( 'NONE',  ( 0.0000000000000000000, 0.0000000000000000000, 1.000000000000000000 ) ) ;
#169 = SHAPE_DEFINITION_REPRESENTATION ( #175, #105 ) ;
#170 = PRODUCT_RELATED_PRODUCT_CATEGORY ( 'part', '', ( #162 ) ) ;
#171 = PRODUCT_DEFINITION_FORMATION_WITH_SPECIFIED_SOURCE ( 'ANY', '', #162, .NOT_KNOWN. ) ;
#172 = PRODUCT_DEFINITION ( 'UNKNOWN', '', #171, #176 ) ;
#173 =( GEOMETRIC_REPRESENTATION_CONTEXT ( 3 ) GLOBAL_UNCERTAINTY_ASSIGNED_CONTEXT ( ( #157 ) ) GLOBAL_UNIT_ASSIGNED_CONTEXT ( ( #151, #153, #152 ) ) REPRESENTATION_CONTEXT ( 'NONE', 'WORKASPACE' ) );
#174 = AXIS2_PLACEMENT_3D ( 'NONE', #165, #168, #166 ) ;
#175 = PRODUCT_DEFINITION_SHAPE ( 'NONE', 'NONE',  #172 ) ;
#176 = PRODUCT_DEFINITION_CONTEXT ( 'detailed design', #178, 'design' ) ;
#177 = APPLICATION_PROTOCOL_DEFINITION ( 'draft international standard', 'automotive_design', 1998, #178 ) ;
#178 = APPLICATION_CONTEXT ( 'automotive_design' ) ;
#179 =( NAMED_UNIT ( * ) PLANE_ANGLE_UNIT ( ) SI_UNIT ( $, .RADIAN. ) );
#180 =( LENGTH_UNIT ( ) NAMED_UNIT ( * ) SI_UNIT ( .MILLI., .METRE. ) );
#181 = MECHANICAL_DESIGN_GEOMETRIC_PRESENTATION_REPRESENTATION (  '', ( #183 ), #7 ) ;
#182 = PRESENTATION_LAYER_ASSIGNMENT (  '', '', ( #183 ) ) ;
#183 = STYLED_ITEM ( 'NONE', ( #184 ), #220 ) ;
#184 = PRESENTATION_STYLE_ASSIGNMENT (( #185 ) ) ;
#185 = SURFACE_STYLE_USAGE ( .BOTH. , #186 ) ;
#186 = SURFACE_SIDE_STYLE ('',( #187 ) ) ;
#187 = SURFACE_STYLE_FILL_AREA ( #188 ) ;
#188 = FILL_AREA_STYLE ('',( #195 ) ) ;
#189 = COLOUR_RGB ( '',0.9568627450980391500, 0.9490196078431372100, 0.9607843137254902200 ) ;
#190 = DIRECTION ( 'NONE',  ( 1.000000000000000000, 0.0000000000000000000, 0.0000000000000000000 ) ) ;
#191 = DIRECTION ( 'NONE',  ( 0.0000000000000000000, -0.0000000000000000000, 1.000000000000000000 ) ) ;
#192 = CARTESIAN_POINT ( 'NONE',  ( 0.0000000000000000000, 5.143516556418882900E-016, -1.399999999999999900 ) ) ;
#193 = AXIS2_PLACEMENT_3D ( 'NONE', #192, #191, #190 ) ;
#194 = FACE_OUTER_BOUND ( 'NONE', #221, .T. ) ;
#195 = FILL_AREA_STYLE_COLOUR ( '', #189 ) ;
#196 = PLANE ( 'NONE',  #193 ) ;
#197 =( GEOMETRIC_REPRESENTATION_CONTEXT ( 3 ) GLOBAL_UNCERTAINTY_ASSIGNED_CONTEXT ( ( #198 ) ) GLOBAL_UNIT_ASSIGNED_CONTEXT ( ( #201, #200, #199 ) ) REPRESENTATION_CONTEXT ( 'NONE', 'WORKASPACE' ) );
#198 = UNCERTAINTY_MEASURE_WITH_UNIT (LENGTH_MEASURE( 1.000000000000000100E-005 ), #201, 'distance_accuracy_value', 'NONE');
#199 =( NAMED_UNIT ( * ) SI_UNIT ( $, .STERADIAN. ) SOLID_ANGLE_UNIT ( ) );
#200 =( NAMED_UNIT ( * ) PLANE_ANGLE_UNIT ( ) SI_UNIT ( $, .RADIAN. ) );
#201 =( LENGTH_UNIT ( ) NAMED_UNIT ( * ) SI_UNIT ( .MILLI., .METRE. ) );
#202 = MECHANICAL_DESIGN_GEOMETRIC_PRESENTATION_REPRESENTATION (  '', ( #204 ), #197 ) ;
#203 = PRESENTATION_LAYER_ASSIGNMENT (  '', '', ( #204 ) ) ;
#204 = STYLED_ITEM ( 'NONE', ( #205 ), #209 ) ;
#205 = PRESENTATION_STYLE_ASSIGNMENT (( #206 ) ) ;
#206 = SURFACE_STYLE_USAGE ( .BOTH. , #212 ) ;
#207 = ORIENTED_EDGE ( 'NONE', *, *, #224, .F. ) ;
#208 = ORIENTED_EDGE ( 'NONE', *, *, #251, .F. ) ;
#209 = ADVANCED_FACE ( 'NONE', ( #217 ), #196, .F. ) ;
#210 = EDGE_LOOP ( 'NONE', ( #211, #218 ) ) ;
#211 = ORIENTED_EDGE ( 'NONE', *, *, #233, .F. ) ;
#212 = SURFACE_SIDE_STYLE ('',( #213 ) ) ;
#213 = SURFACE_STYLE_FILL_AREA ( #214 ) ;
#214 = FILL_AREA_STYLE ('',( #215 ) ) ;
#215 = FILL_AREA_STYLE_COLOUR ( '', #216 ) ;
#216 = COLOUR_RGB ( '',0.9568627450980391500, 0.9490196078431372100, 0.9607843137254902200 ) ;
#217 = FACE_OUTER_BOUND ( 'NONE', #210, .T. ) ;
#218 = ORIENTED_EDGE ( 'NONE', *, *, #231, .F. ) ;
#219 = CLOSED_SHELL ( 'NONE', ( #259, #247, #220, #227, #209 ) ) ;
#220 = ADVANCED_FACE ( 'NONE', ( #194 ), #6, .T. ) ;
#221 = EDGE_LOOP ( 'NONE', ( #222, #223, #225, #226 ) ) ;
#222 = ORIENTED_EDGE ( 'NONE', *, *, #254, .F. ) ;
#223 = ORIENTED_EDGE ( 'NONE', *, *, #224, .T. ) ;
#224 = EDGE_CURVE ( 'NONE', #252, #244, #31, .T. ) ;
#225 = ORIENTED_EDGE ( 'NONE', *, *, #243, .T. ) ;
#226 = ORIENTED_EDGE ( 'NONE', *, *, #257, .T. ) ;
#227 = ADVANCED_FACE ( 'NONE', ( #15 ), #56, .T. ) ;
#228 = EDGE_LOOP ( 'NONE', ( #229, #230, #261, #207, #208 ) ) ;
#229 = ORIENTED_EDGE ( 'NONE', *, *, #237, .F. ) ;
#230 = ORIENTED_EDGE ( 'NONE', *, *, #231, .T. ) ;
#231 = EDGE_CURVE ( 'NONE', #235, #234, #40, .T. ) ;
#232 = ORIENTED_EDGE ( 'NONE', *, *, #233, .T. ) ;
#233 = EDGE_CURVE ( 'NONE', #234, #235, #44, .T. ) ;
#234 = VERTEX_POINT ( 'NONE', #48 ) ;
#235 = VERTEX_POINT ( 'NONE', #50 ) ;
#236 = ORIENTED_EDGE ( 'NONE', *, *, #237, .T. ) ;
#237 = EDGE_CURVE ( 'NONE', #235, #238, #23, .T. ) ;
#238 = VERTEX_POINT ( 'NONE', #12 ) ;
#239 = ORIENTED_EDGE ( 'NONE', *, *, #240, .F. ) ;
#240 = EDGE_CURVE ( 'NONE', #241, #238, #29, .T. ) ;
#241 = VERTEX_POINT ( 'NONE', #30 ) ;
#242 = ORIENTED_EDGE ( 'NONE', *, *, #243, .F. ) ;
#243 = EDGE_CURVE ( 'NONE', #244, #241, #21, .T. ) ;
#244 = VERTEX_POINT ( 'NONE', #61 ) ;
#245 = ORIENTED_EDGE ( 'NONE', *, *, #246, .F. ) ;
#246 = EDGE_CURVE ( 'NONE', #234, #244, #37, .T. ) ;
#247 = ADVANCED_FACE ( 'NONE', ( #33 ), #100, .T. ) ;
#248 = EDGE_LOOP ( 'NONE', ( #249, #250, #253, #256 ) ) ;
#249 = ORIENTED_EDGE ( 'NONE', *, *, #240, .T. ) ;
#250 = ORIENTED_EDGE ( 'NONE', *, *, #251, .T. ) ;
#251 = EDGE_CURVE ( 'NONE', #238, #252, #87, .T. ) ;
#252 = VERTEX_POINT ( 'NONE', #91 ) ;
#253 = ORIENTED_EDGE ( 'NONE', *, *, #254, .T. ) ;
#254 = EDGE_CURVE ( 'NONE', #252, #255, #94, .T. ) ;
#255 = VERTEX_POINT ( 'NONE', #99 ) ;
#256 = ORIENTED_EDGE ( 'NONE', *, *, #257, .F. ) ;
#257 = EDGE_CURVE ( 'NONE', #241, #255, #106, .T. ) ;
#258 = MANIFOLD_SOLID_BREP ( 'NONE', #219 ) ;
#259 = ADVANCED_FACE ( 'NONE', ( #111 ), #102, .T. ) ;
#260 = EDGE_LOOP ( 'NONE', ( #232, #236, #239, #242, #245 ) ) ;
#261 = ORIENTED_EDGE ( 'NONE', *, *, #246, .T. ) ;
ENDSEC;
END-ISO-10303-21;
