ISO-10303-21;
HEADER;
FILE_DESCRIPTION (( 'STEP AP203' ),
    '1' );
FILE_NAME ('Web Model 68366.STEP',
    '2017-01-31T19:49:16',
    ( '' ),
    ( '' ),
    'SwSTEP 2.0',
    'SolidWorks 2016',
    '' );
FILE_SCHEMA (( 'CONFIG_CONTROL_DESIGN' ));
ENDSEC;

DATA;
#1 = ORIENTED_EDGE ( 'NONE', *, *, #132, .T. ) ;
#2 = CC_DESIGN_APPROVAL ( #94, ( #136 ) ) ;
#3 = CARTESIAN_POINT ( 'NONE',  ( -8.750000000000000000, -6.250000000000000900, 0.0000000000000000000 ) ) ;
#4 = DIRECTION ( 'NONE',  ( -0.0000000000000000000, -0.0000000000000000000, -1.000000000000000000 ) ) ;
#5 = CALENDAR_DATE ( 2017, 31, 1 ) ;
#6 = CARTESIAN_POINT ( 'NONE',  ( 8.750000000000000000, -6.250000000000000900, 3.000000000000000000 ) ) ;
#7 = CARTESIAN_POINT ( 'NONE',  ( 8.750000000000000000, -6.250000000000000900, 3.000000000000000000 ) ) ;
#8 = CARTESIAN_POINT ( 'NONE',  ( -8.750000000000000000, 6.249999999999999100, 0.0000000000000000000 ) ) ;
#9 = DIRECTION ( 'NONE',  ( -0.0000000000000000000, 0.0000000000000000000, -1.000000000000000000 ) ) ;
#10 = DATE_AND_TIME ( #212, #171 ) ;
#11 = VECTOR ( 'NONE', #163, 1000.000000000000000 ) ;
#12 = VECTOR ( 'NONE', #221, 1000.000000000000000 ) ;
#13 = DATE_TIME_ROLE ( 'creation_date' ) ;
#14 = PERSON_AND_ORGANIZATION_ROLE ( 'design_owner' ) ;
#15 = APPROVAL_DATE_TIME ( #53, #20 ) ;
#16 = ORIENTED_EDGE ( 'NONE', *, *, #37, .F. ) ;
#17 = COORDINATED_UNIVERSAL_TIME_OFFSET ( 5, 0, .BEHIND. ) ;
#18 = LINE ( 'NONE', #225, #26 ) ;
#19 = VECTOR ( 'NONE', #106, 1000.000000000000000 ) ;
#20 = APPROVAL ( #131, 'UNSPECIFIED' ) ;
#21 = LINE ( 'NONE', #181, #11 ) ;
#22 = CARTESIAN_POINT ( 'NONE',  ( 8.750000000000014200, 6.249999999999999100, 3.000000000000000000 ) ) ;
#23 = PRODUCT_DEFINITION_SHAPE ( 'NONE', 'NONE',  #203 ) ;
#24 = CARTESIAN_POINT ( 'NONE',  ( -8.750000000000000000, -6.250000000000000900, 3.000000000000000000 ) ) ;
#25 = APPROVAL_PERSON_ORGANIZATION ( #42, #94, #30 ) ;
#26 = VECTOR ( 'NONE', #143, 1000.000000000000000 ) ;
#27 =( LENGTH_UNIT ( ) NAMED_UNIT ( * ) SI_UNIT ( .MILLI., .METRE. ) );
#28 = ORIENTED_EDGE ( 'NONE', *, *, #170, .T. ) ;
#29 = APPLICATION_PROTOCOL_DEFINITION ( 'international standard', 'config_control_design', 1994, #167 ) ;
#30 = APPROVAL_ROLE ( '' ) ;
#31 = CC_DESIGN_SECURITY_CLASSIFICATION ( #136, ( #234 ) ) ;
#32 = PERSON_AND_ORGANIZATION_ROLE ( 'design_supplier' ) ;
#33 = PERSON_AND_ORGANIZATION ( #69, #192 ) ;
#34 = CC_DESIGN_APPROVAL ( #157, ( #203 ) ) ;
#35 = APPROVAL_STATUS ( 'not_yet_approved' ) ;
#36 = CC_DESIGN_DATE_AND_TIME_ASSIGNMENT ( #183, #72, ( #136 ) ) ;
#37 = EDGE_CURVE ( 'NONE', #130, #105, #224, .T. ) ;
#38 = ORIENTED_EDGE ( 'NONE', *, *, #58, .T. ) ;
#39 = CC_DESIGN_APPROVAL ( #20, ( #234 ) ) ;
#40 = APPROVAL_PERSON_ORGANIZATION ( #123, #157, #209 ) ;
#41 = EDGE_LOOP ( 'NONE', ( #99, #28, #218, #195 ) ) ;
#42 = PERSON_AND_ORGANIZATION ( #69, #192 ) ;
#43 = FACE_OUTER_BOUND ( 'NONE', #160, .T. ) ;
#44 = ADVANCED_FACE ( 'NONE', ( #93 ), #175, .F. ) ;
#45 = CARTESIAN_POINT ( 'NONE',  ( 8.750000000000000000, -6.250000000000000900, 0.0000000000000000000 ) ) ;
#46 = DIRECTION ( 'NONE',  ( -1.000000000000000000, 1.110223024625156300E-015, 0.0000000000000000000 ) ) ;
#47 = ORIENTED_EDGE ( 'NONE', *, *, #168, .F. ) ;
#48 = DIRECTION ( 'NONE',  ( 0.0000000000000000000, -1.000000000000000000, 0.0000000000000000000 ) ) ;
#49 = PLANE ( 'NONE',  #80 ) ;
#50 = VECTOR ( 'NONE', #109, 1000.000000000000000 ) ;
#51 = CARTESIAN_POINT ( 'NONE',  ( -8.750000000000000000, -6.250000000000000900, 0.0000000000000000000 ) ) ;
#52 =( NAMED_UNIT ( * ) SI_UNIT ( $, .STERADIAN. ) SOLID_ANGLE_UNIT ( ) );
#53 = DATE_AND_TIME ( #173, #133 ) ;
#54 = AXIS2_PLACEMENT_3D ( 'NONE', #85, #161, #9 ) ;
#55 = AXIS2_PLACEMENT_3D ( 'NONE', #128, #205, #162 ) ;
#56 = VERTEX_POINT ( 'NONE', #3 ) ;
#57 = PRODUCT_RELATED_PRODUCT_CATEGORY ( 'detail', '', ( #135 ) ) ;
#58 = EDGE_CURVE ( 'NONE', #235, #56, #193, .T. ) ;
#59 = CC_DESIGN_PERSON_AND_ORGANIZATION_ASSIGNMENT ( #68, #129, ( #234 ) ) ;
#60 = DIRECTION ( 'NONE',  ( -1.110223024625156300E-015, -1.000000000000000000, 0.0000000000000000000 ) ) ;
#61 = EDGE_LOOP ( 'NONE', ( #124, #79, #200, #1 ) ) ;
#62 = ADVANCED_FACE ( 'NONE', ( #142 ), #237, .T. ) ;
#63 = DIRECTION ( 'NONE',  ( 1.000000000000000000, 0.0000000000000000000, 0.0000000000000000000 ) ) ;
#64 = DIRECTION ( 'NONE',  ( 0.0000000000000000000, -0.0000000000000000000, -1.000000000000000000 ) ) ;
#65 = LOCAL_TIME ( 14, 49, 16.00000000000000000, #223 ) ;
#66 = EDGE_LOOP ( 'NONE', ( #38, #121, #230, #145 ) ) ;
#67 = DIRECTION ( 'NONE',  ( -1.000000000000000000, -0.0000000000000000000, -0.0000000000000000000 ) ) ;
#68 = PERSON_AND_ORGANIZATION ( #69, #192 ) ;
#69 = PERSON ( 'UNSPECIFIED', 'UNSPECIFIED', 'UNSPECIFIED', ('UNSPECIFIED'), ('UNSPECIFIED'), ('UNSPECIFIED') ) ;
#70 = ORIENTED_EDGE ( 'NONE', *, *, #236, .F. ) ;
#71 = ADVANCED_FACE ( 'NONE', ( #164 ), #77, .F. ) ;
#72 = DATE_TIME_ROLE ( 'classification_date' ) ;
#73 = ORIENTED_EDGE ( 'NONE', *, *, #188, .T. ) ;
#74 = VERTEX_POINT ( 'NONE', #140 ) ;
#75 = CARTESIAN_POINT ( 'NONE',  ( 8.750000000000000000, -6.250000000000000900, 3.000000000000000000 ) ) ;
#76 = DIRECTION ( 'NONE',  ( 1.000000000000000000, 0.0000000000000000000, 0.0000000000000000000 ) ) ;
#77 = PLANE ( 'NONE',  #214 ) ;
#78 = CC_DESIGN_PERSON_AND_ORGANIZATION_ASSIGNMENT ( #95, #232, ( #136 ) ) ;
#79 = ORIENTED_EDGE ( 'NONE', *, *, #119, .F. ) ;
#80 = AXIS2_PLACEMENT_3D ( 'NONE', #201, #82, #64 ) ;
#81 = CARTESIAN_POINT ( 'NONE',  ( -8.750000000000000000, 6.249999999999999100, 0.0000000000000000000 ) ) ;
#82 = DIRECTION ( 'NONE',  ( 0.0000000000000000000, -1.000000000000000000, 0.0000000000000000000 ) ) ;
#83 = CALENDAR_DATE ( 2017, 31, 1 ) ;
#84 = SHAPE_DEFINITION_REPRESENTATION ( #23, #114 ) ;
#85 = CARTESIAN_POINT ( 'NONE',  ( -8.750000000000000000, 6.249999999999999100, 3.000000000000000000 ) ) ;
#86 = APPLICATION_CONTEXT ( 'configuration controlled 3d designs of mechanical parts and assemblies' ) ;
#87 = ORIENTED_EDGE ( 'NONE', *, *, #207, .T. ) ;
#88 = VECTOR ( 'NONE', #110, 1000.000000000000000 ) ;
#89 = EDGE_CURVE ( 'NONE', #149, #179, #116, .T. ) ;
#90 = ORIENTED_EDGE ( 'NONE', *, *, #132, .F. ) ;
#91 = COORDINATED_UNIVERSAL_TIME_OFFSET ( 5, 0, .BEHIND. ) ;
#92 = DIRECTION ( 'NONE',  ( -0.0000000000000000000, 0.0000000000000000000, 1.000000000000000000 ) ) ;
#93 = FACE_OUTER_BOUND ( 'NONE', #102, .T. ) ;
#94 = APPROVAL ( #35, 'UNSPECIFIED' ) ;
#95 = PERSON_AND_ORGANIZATION ( #69, #192 ) ;
#96 = LINE ( 'NONE', #108, #88 ) ;
#97 = CARTESIAN_POINT ( 'NONE',  ( -8.750000000000000000, 6.249999999999999100, 3.000000000000000000 ) ) ;
#98 = DATE_AND_TIME ( #83, #198 ) ;
#99 = ORIENTED_EDGE ( 'NONE', *, *, #37, .T. ) ;
#100 = APPROVAL_ROLE ( '' ) ;
#101 = COORDINATED_UNIVERSAL_TIME_OFFSET ( 5, 0, .BEHIND. ) ;
#102 = EDGE_LOOP ( 'NONE', ( #152, #166, #150, #70 ) ) ;
#103 = CLOSED_SHELL ( 'NONE', ( #71, #196, #172, #220, #62, #44 ) ) ;
#104 = COORDINATED_UNIVERSAL_TIME_OFFSET ( 5, 0, .BEHIND. ) ;
#105 = VERTEX_POINT ( 'NONE', #180 ) ;
#106 = DIRECTION ( 'NONE',  ( 0.0000000000000000000, -1.000000000000000000, 0.0000000000000000000 ) ) ;
#107 = DIRECTION ( 'NONE',  ( -0.0000000000000000000, -0.0000000000000000000, -1.000000000000000000 ) ) ;
#108 = CARTESIAN_POINT ( 'NONE',  ( -8.750000000000000000, -6.250000000000000900, 3.000000000000000000 ) ) ;
#109 = DIRECTION ( 'NONE',  ( -1.000000000000000000, -0.0000000000000000000, -0.0000000000000000000 ) ) ;
#110 = DIRECTION ( 'NONE',  ( 1.000000000000000000, 0.0000000000000000000, 0.0000000000000000000 ) ) ;
#111 = FACE_OUTER_BOUND ( 'NONE', #66, .T. ) ;
#112 = EDGE_LOOP ( 'NONE', ( #73, #90, #16, #186 ) ) ;
#113 = APPROVAL_STATUS ( 'not_yet_approved' ) ;
#114 = ADVANCED_BREP_SHAPE_REPRESENTATION ( 'Web Model 68366', ( #139, #189 ), #151 ) ;
#115 = DIRECTION ( 'NONE',  ( 0.0000000000000000000, 0.0000000000000000000, 1.000000000000000000 ) ) ;
#116 = LINE ( 'NONE', #177, #211 ) ;
#117 = APPLICATION_PROTOCOL_DEFINITION ( 'international standard', 'config_control_design', 1994, #86 ) ;
#118 = LINE ( 'NONE', #156, #138 ) ;
#119 = EDGE_CURVE ( 'NONE', #149, #235, #120, .T. ) ;
#120 = LINE ( 'NONE', #158, #155 ) ;
#121 = ORIENTED_EDGE ( 'NONE', *, *, #190, .F. ) ;
#122 = DIRECTION ( 'NONE',  ( -0.0000000000000000000, -0.0000000000000000000, -1.000000000000000000 ) ) ;
#123 = PERSON_AND_ORGANIZATION ( #69, #192 ) ;
#124 = ORIENTED_EDGE ( 'NONE', *, *, #236, .T. ) ;
#125 = CARTESIAN_POINT ( 'NONE',  ( 8.750000000000014200, 6.249999999999999100, 3.000000000000000000 ) ) ;
#126 = PERSON_AND_ORGANIZATION ( #69, #192 ) ;
#127 = LINE ( 'NONE', #6, #184 ) ;
#128 = CARTESIAN_POINT ( 'NONE',  ( -8.750000000000000000, -6.250000000000000900, 3.000000000000000000 ) ) ;
#129 = PERSON_AND_ORGANIZATION_ROLE ( 'creator' ) ;
#130 = VERTEX_POINT ( 'NONE', #7 ) ;
#131 = APPROVAL_STATUS ( 'not_yet_approved' ) ;
#132 = EDGE_CURVE ( 'NONE', #105, #74, #118, .T. ) ;
#133 = LOCAL_TIME ( 14, 49, 16.00000000000000000, #101 ) ;
#134 = CC_DESIGN_PERSON_AND_ORGANIZATION_ASSIGNMENT ( #226, #32, ( #234 ) ) ;
#135 = PRODUCT ( 'Web Model 68366', 'Web Model 68366', '', ( #169 ) ) ;
#136 = SECURITY_CLASSIFICATION ( '', '', #148 ) ;
#137 = CALENDAR_DATE ( 2017, 31, 1 ) ;
#138 = VECTOR ( 'NONE', #107, 1000.000000000000000 ) ;
#139 = MANIFOLD_SOLID_BREP ( 'Extrude1', #103 ) ;
#140 = CARTESIAN_POINT ( 'NONE',  ( 8.750000000000014200, 6.249999999999999100, 0.0000000000000000000 ) ) ;
#141 = APPROVAL_DATE_TIME ( #10, #94 ) ;
#142 = FACE_OUTER_BOUND ( 'NONE', #41, .T. ) ;
#143 = DIRECTION ( 'NONE',  ( -0.0000000000000000000, -0.0000000000000000000, -1.000000000000000000 ) ) ;
#144 = CC_DESIGN_PERSON_AND_ORGANIZATION_ASSIGNMENT ( #229, #14, ( #135 ) ) ;
#145 = ORIENTED_EDGE ( 'NONE', *, *, #119, .T. ) ;
#146 =( NAMED_UNIT ( * ) PLANE_ANGLE_UNIT ( ) SI_UNIT ( $, .RADIAN. ) );
#147 = LOCAL_TIME ( 14, 49, 16.00000000000000000, #17 ) ;
#148 = SECURITY_CLASSIFICATION_LEVEL ( 'unclassified' ) ;
#149 = VERTEX_POINT ( 'NONE', #159 ) ;
#150 = ORIENTED_EDGE ( 'NONE', *, *, #58, .F. ) ;
#151 =( GEOMETRIC_REPRESENTATION_CONTEXT ( 3 ) GLOBAL_UNCERTAINTY_ASSIGNED_CONTEXT ( ( #153 ) ) GLOBAL_UNIT_ASSIGNED_CONTEXT ( ( #27, #146, #52 ) ) REPRESENTATION_CONTEXT ( 'NONE', 'WORKASPACE' ) );
#152 = ORIENTED_EDGE ( 'NONE', *, *, #188, .F. ) ;
#153 = UNCERTAINTY_MEASURE_WITH_UNIT (LENGTH_MEASURE( 1.000000000000000100E-005 ), #27, 'distance_accuracy_value', 'NONE');
#154 = APPROVAL_DATE_TIME ( #191, #157 ) ;
#155 = VECTOR ( 'NONE', #122, 1000.000000000000000 ) ;
#156 = CARTESIAN_POINT ( 'NONE',  ( 8.750000000000014200, 6.249999999999999100, 3.000000000000000000 ) ) ;
#157 = APPROVAL ( #113, 'UNSPECIFIED' ) ;
#158 = CARTESIAN_POINT ( 'NONE',  ( -8.750000000000000000, 6.249999999999999100, 3.000000000000000000 ) ) ;
#159 = CARTESIAN_POINT ( 'NONE',  ( -8.750000000000000000, 6.249999999999999100, 3.000000000000000000 ) ) ;
#160 = EDGE_LOOP ( 'NONE', ( #87, #47, #210, #213 ) ) ;
#161 = DIRECTION ( 'NONE',  ( 1.000000000000000000, 0.0000000000000000000, -0.0000000000000000000 ) ) ;
#162 = DIRECTION ( 'NONE',  ( 0.0000000000000000000, -0.0000000000000000000, 1.000000000000000000 ) ) ;
#163 = DIRECTION ( 'NONE',  ( 1.110223024625156500E-015, 1.000000000000000000, -0.0000000000000000000 ) ) ;
#164 = FACE_OUTER_BOUND ( 'NONE', #112, .T. ) ;
#165 = PLANE ( 'NONE',  #54 ) ;
#166 = ORIENTED_EDGE ( 'NONE', *, *, #207, .F. ) ;
#167 = APPLICATION_CONTEXT ( 'configuration controlled 3d designs of mechanical parts and assemblies' ) ;
#168 = EDGE_CURVE ( 'NONE', #130, #206, #127, .T. ) ;
#169 = MECHANICAL_CONTEXT ( 'NONE', #167, 'mechanical' ) ;
#170 = EDGE_CURVE ( 'NONE', #105, #149, #185, .T. ) ;
#171 = LOCAL_TIME ( 14, 49, 16.00000000000000000, #91 ) ;
#172 = ADVANCED_FACE ( 'NONE', ( #111 ), #165, .F. ) ;
#173 = CALENDAR_DATE ( 2017, 31, 1 ) ;
#174 = LINE ( 'NONE', #51, #217 ) ;
#175 = PLANE ( 'NONE',  #194 ) ;
#176 = EDGE_CURVE ( 'NONE', #179, #130, #96, .T. ) ;
#177 = CARTESIAN_POINT ( 'NONE',  ( -8.750000000000000000, 6.249999999999999100, 3.000000000000000000 ) ) ;
#178 = LINE ( 'NONE', #8, #204 ) ;
#179 = VERTEX_POINT ( 'NONE', #24 ) ;
#180 = CARTESIAN_POINT ( 'NONE',  ( 8.750000000000014200, 6.249999999999999100, 3.000000000000000000 ) ) ;
#181 = CARTESIAN_POINT ( 'NONE',  ( 8.750000000000014200, 6.249999999999999100, 0.0000000000000000000 ) ) ;
#182 = CARTESIAN_POINT ( 'NONE',  ( 8.750000000000000000, -6.250000000000000900, 0.0000000000000000000 ) ) ;
#183 = DATE_AND_TIME ( #137, #147 ) ;
#184 = VECTOR ( 'NONE', #4, 1000.000000000000000 ) ;
#185 = LINE ( 'NONE', #97, #50 ) ;
#186 = ORIENTED_EDGE ( 'NONE', *, *, #168, .T. ) ;
#187 = PERSON_AND_ORGANIZATION_ROLE ( 'creator' ) ;
#188 = EDGE_CURVE ( 'NONE', #206, #74, #21, .T. ) ;
#189 = AXIS2_PLACEMENT_3D ( 'NONE', #227, #115, #228 ) ;
#190 = EDGE_CURVE ( 'NONE', #179, #56, #18, .T. ) ;
#191 = DATE_AND_TIME ( #5, #65 ) ;
#192 = ORGANIZATION ( 'UNSPECIFIED', 'UNSPECIFIED', '' ) ;
#193 = LINE ( 'NONE', #197, #19 ) ;
#194 = AXIS2_PLACEMENT_3D ( 'NONE', #45, #92, #76 ) ;
#195 = ORIENTED_EDGE ( 'NONE', *, *, #176, .T. ) ;
#196 = ADVANCED_FACE ( 'NONE', ( #233 ), #49, .F. ) ;
#197 = CARTESIAN_POINT ( 'NONE',  ( -8.750000000000000000, 6.249999999999999100, 0.0000000000000000000 ) ) ;
#198 = LOCAL_TIME ( 14, 49, 16.00000000000000000, #104 ) ;
#199 = DIRECTION ( 'NONE',  ( 1.000000000000000000, 0.0000000000000000000, 0.0000000000000000000 ) ) ;
#200 = ORIENTED_EDGE ( 'NONE', *, *, #170, .F. ) ;
#201 = CARTESIAN_POINT ( 'NONE',  ( -8.750000000000000000, 6.249999999999999100, 3.000000000000000000 ) ) ;
#202 = PLANE ( 'NONE',  #55 ) ;
#203 = PRODUCT_DEFINITION ( 'UNKNOWN', '', #234, #208 ) ;
#204 = VECTOR ( 'NONE', #67, 1000.000000000000000 ) ;
#205 = DIRECTION ( 'NONE',  ( 0.0000000000000000000, 1.000000000000000000, 0.0000000000000000000 ) ) ;
#206 = VERTEX_POINT ( 'NONE', #182 ) ;
#207 = EDGE_CURVE ( 'NONE', #56, #206, #174, .T. ) ;
#208 = DESIGN_CONTEXT ( 'detailed design', #86, 'design' ) ;
#209 = APPROVAL_ROLE ( '' ) ;
#210 = ORIENTED_EDGE ( 'NONE', *, *, #176, .F. ) ;
#211 = VECTOR ( 'NONE', #48, 1000.000000000000000 ) ;
#212 = CALENDAR_DATE ( 2017, 31, 1 ) ;
#213 = ORIENTED_EDGE ( 'NONE', *, *, #190, .T. ) ;
#214 = AXIS2_PLACEMENT_3D ( 'NONE', #22, #46, #60 ) ;
#215 = APPROVAL_PERSON_ORGANIZATION ( #33, #20, #100 ) ;
#216 = DIRECTION ( 'NONE',  ( -0.0000000000000000000, 0.0000000000000000000, 1.000000000000000000 ) ) ;
#217 = VECTOR ( 'NONE', #199, 1000.000000000000000 ) ;
#218 = ORIENTED_EDGE ( 'NONE', *, *, #89, .T. ) ;
#219 = CC_DESIGN_PERSON_AND_ORGANIZATION_ASSIGNMENT ( #126, #187, ( #203 ) ) ;
#220 = ADVANCED_FACE ( 'NONE', ( #43 ), #202, .F. ) ;
#221 = DIRECTION ( 'NONE',  ( 1.110223024625156500E-015, 1.000000000000000000, -0.0000000000000000000 ) ) ;
#222 = AXIS2_PLACEMENT_3D ( 'NONE', #75, #216, #63 ) ;
#223 = COORDINATED_UNIVERSAL_TIME_OFFSET ( 5, 0, .BEHIND. ) ;
#224 = LINE ( 'NONE', #125, #12 ) ;
#225 = CARTESIAN_POINT ( 'NONE',  ( -8.750000000000000000, -6.250000000000000900, 3.000000000000000000 ) ) ;
#226 = PERSON_AND_ORGANIZATION ( #69, #192 ) ;
#227 = CARTESIAN_POINT ( 'NONE',  ( 0.0000000000000000000, 0.0000000000000000000, 0.0000000000000000000 ) ) ;
#228 = DIRECTION ( 'NONE',  ( 1.000000000000000000, 0.0000000000000000000, 0.0000000000000000000 ) ) ;
#229 = PERSON_AND_ORGANIZATION ( #69, #192 ) ;
#230 = ORIENTED_EDGE ( 'NONE', *, *, #89, .F. ) ;
#231 = CC_DESIGN_DATE_AND_TIME_ASSIGNMENT ( #98, #13, ( #203 ) ) ;
#232 = PERSON_AND_ORGANIZATION_ROLE ( 'classification_officer' ) ;
#233 = FACE_OUTER_BOUND ( 'NONE', #61, .T. ) ;
#234 = PRODUCT_DEFINITION_FORMATION_WITH_SPECIFIED_SOURCE ( 'ANY', '', #135, .NOT_KNOWN. ) ;
#235 = VERTEX_POINT ( 'NONE', #81 ) ;
#236 = EDGE_CURVE ( 'NONE', #74, #235, #178, .T. ) ;
#237 = PLANE ( 'NONE',  #222 ) ;
ENDSEC;
END-ISO-10303-21;
