ISO-10303-21;
HEADER;
FILE_DESCRIPTION (( 'STEP AP203' ),
    '1' );
FILE_NAME ('4314-E0W.STEP',
    '2015-06-17T20:44:16',
    ( 'admin' ),
    ( '' ),
    'SwSTEP 2.0',
    'SolidWorks 2014',
    '' );
FILE_SCHEMA (( 'CONFIG_CONTROL_DESIGN' ));
ENDSEC;

DATA;
#1 = DIRECTION ( 'NONE',  ( 0.0000000000000000000, 0.0000000000000000000, -1.000000000000000000 ) ) ;
#2 = CALENDAR_DATE ( 2015, 17, 6 ) ;
#3 = ORIENTED_EDGE ( 'NONE', *, *, #248, .F. ) ;
#4 = ORIENTED_EDGE ( 'NONE', *, *, #161, .F. ) ;
#5 = ORIENTED_EDGE ( 'NONE', *, *, #64, .T. ) ;
#6 = CC_DESIGN_PERSON_AND_ORGANIZATION_ASSIGNMENT ( #336, #157, ( #175 ) ) ;
#7 = VERTEX_POINT ( 'NONE', #153 ) ;
#8 = ORIENTED_EDGE ( 'NONE', *, *, #150, .F. ) ;
#9 = DIRECTION ( 'NONE',  ( 0.0000000000000000000, 0.0000000000000000000, -1.000000000000000000 ) ) ;
#10 = DIRECTION ( 'NONE',  ( -1.000000000000000000, 0.0000000000000000000, 0.0000000000000000000 ) ) ;
#11 = DIRECTION ( 'NONE',  ( -1.000000000000000000, 0.0000000000000000000, 0.0000000000000000000 ) ) ;
#12 = CC_DESIGN_APPROVAL ( #243, ( #349 ) ) ;
#13 = AXIS2_PLACEMENT_3D ( 'NONE', #67, #9, #11 ) ;
#14 = ADVANCED_FACE ( 'NONE', ( #147 ), #215, .T. ) ;
#15 = DIRECTION ( 'NONE',  ( -1.000000000000000000, 0.0000000000000000000, 0.0000000000000000000 ) ) ;
#16 = ORIENTED_EDGE ( 'NONE', *, *, #217, .F. ) ;
#17 = COORDINATED_UNIVERSAL_TIME_OFFSET ( 5, 0, .BEHIND. ) ;
#18 = EDGE_CURVE ( 'NONE', #359, #7, #186, .T. ) ;
#19 = CIRCLE ( 'NONE', #311, 6.349999999999999600 ) ;
#20 = ORIENTED_EDGE ( 'NONE', *, *, #270, .T. ) ;
#21 = CARTESIAN_POINT ( 'NONE',  ( 0.0000000000000000000, 0.0000000000000000000, -0.9397329551366351300 ) ) ;
#22 = APPLICATION_CONTEXT ( 'configuration controlled 3d designs of mechanical parts and assemblies' ) ;
#23 = DIRECTION ( 'NONE',  ( -1.000000000000000000, 0.0000000000000000000, 0.0000000000000000000 ) ) ;
#24 = CARTESIAN_POINT ( 'NONE',  ( 0.0000000000000000000, 0.0000000000000000000, 44.25000000000000700 ) ) ;
#25 = ORIENTED_EDGE ( 'NONE', *, *, #52, .T. ) ;
#26 = VERTEX_POINT ( 'NONE', #353 ) ;
#27 = CARTESIAN_POINT ( 'NONE',  ( 0.0000000000000000000, 0.0000000000000000000, -44.25000000000000700 ) ) ;
#28 = ORIENTED_EDGE ( 'NONE', *, *, #295, .T. ) ;
#29 = DIRECTION ( 'NONE',  ( -0.0000000000000000000, -0.0000000000000000000, 1.000000000000000000 ) ) ;
#30 = DIRECTION ( 'NONE',  ( -1.000000000000000000, 1.224646799147353200E-016, 0.0000000000000000000 ) ) ;
#31 = ORIENTED_EDGE ( 'NONE', *, *, #56, .F. ) ;
#32 = CALENDAR_DATE ( 2015, 17, 6 ) ;
#33 = DIRECTION ( 'NONE',  ( 0.0000000000000000000, 0.0000000000000000000, -1.000000000000000000 ) ) ;
#34 =( GEOMETRIC_REPRESENTATION_CONTEXT ( 3 ) GLOBAL_UNCERTAINTY_ASSIGNED_CONTEXT ( ( #159 ) ) GLOBAL_UNIT_ASSIGNED_CONTEXT ( ( #334, #65, #271 ) ) REPRESENTATION_CONTEXT ( 'NONE', 'WORKASPACE' ) );
#35 = ORIENTED_EDGE ( 'NONE', *, *, #226, .T. ) ;
#36 = LINE ( 'NONE', #213, #317 ) ;
#37 = EDGE_CURVE ( 'NONE', #358, #293, #66, .T. ) ;
#38 = CARTESIAN_POINT ( 'NONE',  ( 0.0000000000000000000, 0.0000000000000000000, 0.9397329551366351300 ) ) ;
#39 = PERSON_AND_ORGANIZATION_ROLE ( 'design_supplier' ) ;
#40 = VERTEX_POINT ( 'NONE', #203 ) ;
#41 = EDGE_LOOP ( 'NONE', ( #309, #152, #20, #286 ) ) ;
#42 = ORIENTED_EDGE ( 'NONE', *, *, #270, .F. ) ;
#43 = DIRECTION ( 'NONE',  ( 0.0000000000000000000, 0.0000000000000000000, -1.000000000000000000 ) ) ;
#44 = EDGE_LOOP ( 'NONE', ( #63, #210, #101, #106 ) ) ;
#45 = EDGE_LOOP ( 'NONE', ( #180, #128, #292, #25 ) ) ;
#46 = AXIS2_PLACEMENT_3D ( 'NONE', #296, #30, #80 ) ;
#47 = VERTEX_POINT ( 'NONE', #198 ) ;
#48 = EDGE_LOOP ( 'NONE', ( #277, #252, #5, #4 ) ) ;
#49 = DIRECTION ( 'NONE',  ( 0.0000000000000000000, 0.0000000000000000000, -1.000000000000000000 ) ) ;
#50 = ORIENTED_EDGE ( 'NONE', *, *, #37, .F. ) ;
#51 = CARTESIAN_POINT ( 'NONE',  ( 6.349999999999999600, 0.0000000000000000000, -0.6557028513564516800 ) ) ;
#52 = EDGE_CURVE ( 'NONE', #7, #47, #140, .T. ) ;
#53 = EDGE_LOOP ( 'NONE', ( #8, #130, #31, #35, #85 ) ) ;
#54 = APPROVAL_DATE_TIME ( #362, #243 ) ;
#55 = DIRECTION ( 'NONE',  ( 0.0000000000000000000, 1.000000000000000000, 0.0000000000000000000 ) ) ;
#56 = EDGE_CURVE ( 'NONE', #357, #343, #151, .T. ) ;
#57 = PERSON_AND_ORGANIZATION ( #242, #194 ) ;
#58 = CIRCLE ( 'NONE', #315, 6.103116863000221500 ) ;
#59 = CALENDAR_DATE ( 2015, 17, 6 ) ;
#60 = DIRECTION ( 'NONE',  ( -0.0000000000000000000, -0.0000000000000000000, 1.000000000000000000 ) ) ;
#61 = CARTESIAN_POINT ( 'NONE',  ( 0.0000000000000000000, 0.0000000000000000000, -44.25000000000000700 ) ) ;
#62 = ADVANCED_FACE ( 'NONE', ( #189 ), #205, .T. ) ;
#63 = ORIENTED_EDGE ( 'NONE', *, *, #108, .F. ) ;
#64 = EDGE_CURVE ( 'NONE', #293, #310, #206, .T. ) ;
#65 =( NAMED_UNIT ( * ) PLANE_ANGLE_UNIT ( ) SI_UNIT ( $, .RADIAN. ) );
#66 = CIRCLE ( 'NONE', #117, 6.103116863000204600 ) ;
#67 = CARTESIAN_POINT ( 'NONE',  ( 0.0000000000000000000, 0.0000000000000000000, 0.6557028513564378000 ) ) ;
#68 = CC_DESIGN_APPROVAL ( #340, ( #172 ) ) ;
#69 = PERSON_AND_ORGANIZATION ( #242, #194 ) ;
#70 = LINE ( 'NONE', #51, #251 ) ;
#71 = DIRECTION ( 'NONE',  ( -0.6560280535293936400, 8.034026559056403100E-017, 0.7547365056643510200 ) ) ;
#72 = DIRECTION ( 'NONE',  ( 1.000000000000000000, 0.0000000000000000000, 0.0000000000000000000 ) ) ;
#73 = CC_DESIGN_DATE_AND_TIME_ASSIGNMENT ( #79, #333, ( #279 ) ) ;
#74 = EDGE_CURVE ( 'NONE', #26, #148, #199, .T. ) ;
#75 = VECTOR ( 'NONE', #127, 1000.000000000000000 ) ;
#76 = APPROVAL ( #339, 'UNSPECIFIED' ) ;
#77 = ORIENTED_EDGE ( 'NONE', *, *, #18, .F. ) ;
#78 = CIRCLE ( 'NONE', #241, 6.103116863000221500 ) ;
#79 = DATE_AND_TIME ( #59, #126 ) ;
#80 = DIRECTION ( 'NONE',  ( -1.224646799147353200E-016, -1.000000000000000000, 0.0000000000000000000 ) ) ;
#81 = DESIGN_CONTEXT ( 'detailed design', #22, 'design' ) ;
#82 = EDGE_CURVE ( 'NONE', #47, #7, #214, .T. ) ;
#83 = DIRECTION ( 'NONE',  ( -0.0000000000000000000, -0.0000000000000000000, 1.000000000000000000 ) ) ;
#84 = EDGE_LOOP ( 'NONE', ( #42, #284, #328, #99, #207 ) ) ;
#85 = ORIENTED_EDGE ( 'NONE', *, *, #98, .F. ) ;
#86 = ADVANCED_FACE ( 'NONE', ( #191 ), #313, .T. ) ;
#87 = ORIENTED_EDGE ( 'NONE', *, *, #52, .F. ) ;
#88 = CONICAL_SURFACE ( 'NONE', #196, 6.349999999999999600, 0.7155439511613519400 ) ;
#89 = DIRECTION ( 'NONE',  ( 0.0000000000000000000, 1.000000000000000000, 0.0000000000000000000 ) ) ;
#90 = DIRECTION ( 'NONE',  ( -0.0000000000000000000, -0.0000000000000000000, 1.000000000000000000 ) ) ;
#91 = CARTESIAN_POINT ( 'NONE',  ( 0.0000000000000000000, 0.0000000000000000000, -0.6557028513564516800 ) ) ;
#92 = CARTESIAN_POINT ( 'NONE',  ( 0.0000000000000000000, 0.0000000000000000000, 0.9397329551366351300 ) ) ;
#93 = CARTESIAN_POINT ( 'NONE',  ( 0.0000000000000000000, 0.0000000000000000000, 44.25000000000000700 ) ) ;
#94 = CARTESIAN_POINT ( 'NONE',  ( 0.0000000000000000000, 0.0000000000000000000, 44.25000000000000700 ) ) ;
#95 = AXIS2_PLACEMENT_3D ( 'NONE', #244, #322, #111 ) ;
#96 = VECTOR ( 'NONE', #90, 1000.000000000000000 ) ;
#97 = LOCAL_TIME ( 16, 44, 16.00000000000000000, #165 ) ;
#98 = EDGE_CURVE ( 'NONE', #316, #40, #219, .T. ) ;
#99 = ORIENTED_EDGE ( 'NONE', *, *, #295, .F. ) ;
#100 = CARTESIAN_POINT ( 'NONE',  ( -6.349999999999999600, 7.776507174585692200E-016, -0.6557028513564516800 ) ) ;
#101 = ORIENTED_EDGE ( 'NONE', *, *, #208, .T. ) ;
#102 = DIRECTION ( 'NONE',  ( 0.0000000000000000000, 1.000000000000000000, 0.0000000000000000000 ) ) ;
#103 = CARTESIAN_POINT ( 'NONE',  ( 0.0000000000000000000, 0.0000000000000000000, 1.350000000000000100 ) ) ;
#104 = EDGE_CURVE ( 'NONE', #247, #358, #238, .T. ) ;
#105 = CARTESIAN_POINT ( 'NONE',  ( 0.0000000000000000000, 0.0000000000000000000, 0.9397329551366351300 ) ) ;
#106 = ORIENTED_EDGE ( 'NONE', *, *, #56, .T. ) ;
#107 = FACE_OUTER_BOUND ( 'NONE', #44, .T. ) ;
#108 = EDGE_CURVE ( 'NONE', #26, #343, #255, .T. ) ;
#109 = CARTESIAN_POINT ( 'NONE',  ( 0.0000000000000000000, 2.792194702055965200E-015, 1.349999999999997000 ) ) ;
#110 = CIRCLE ( 'NONE', #356, 6.103116863000221500 ) ;
#111 = DIRECTION ( 'NONE',  ( 1.000000000000000000, 0.0000000000000000000, 0.0000000000000000000 ) ) ;
#112 = ADVANCED_FACE ( 'NONE', ( #258 ), #303, .T. ) ;
#113 = DIRECTION ( 'NONE',  ( -0.0000000000000000000, -0.0000000000000000000, 1.000000000000000000 ) ) ;
#114 = VECTOR ( 'NONE', #71, 1000.000000000000200 ) ;
#115 = PERSON_AND_ORGANIZATION ( #242, #194 ) ;
#116 = MANIFOLD_SOLID_BREP ( '4314-001-1-solid1', #143 ) ;
#117 = AXIS2_PLACEMENT_3D ( 'NONE', #105, #29, #237 ) ;
#118 = CALENDAR_DATE ( 2015, 17, 6 ) ;
#119 = SPHERICAL_SURFACE ( 'NONE', #321, 45.60000000000000100 ) ;
#120 = CARTESIAN_POINT ( 'NONE',  ( 0.0000000000000000000, 0.0000000000000000000, 0.9397329551366351300 ) ) ;
#121 = CARTESIAN_POINT ( 'NONE',  ( 0.0000000000000000000, 0.0000000000000000000, -0.9397329551366351300 ) ) ;
#122 = EDGE_LOOP ( 'NONE', ( #77, #231, #50, #28, #87 ) ) ;
#123 = CC_DESIGN_PERSON_AND_ORGANIZATION_ASSIGNMENT ( #57, #171, ( #349 ) ) ;
#124 = DIRECTION ( 'NONE',  ( 1.000000000000000000, 0.0000000000000000000, 0.0000000000000000000 ) ) ;
#125 = EDGE_CURVE ( 'NONE', #343, #246, #78, .T. ) ;
#126 = LOCAL_TIME ( 16, 44, 16.00000000000000000, #134 ) ;
#127 = DIRECTION ( 'NONE',  ( 0.6560280535293873100, 8.034026559056326700E-017, -0.7547365056643566800 ) ) ;
#128 = ORIENTED_EDGE ( 'NONE', *, *, #98, .T. ) ;
#129 = VECTOR ( 'NONE', #259, 1000.000000000000000 ) ;
#130 = ORIENTED_EDGE ( 'NONE', *, *, #125, .F. ) ;
#131 = DIRECTION ( 'NONE',  ( -0.0000000000000000000, -0.0000000000000000000, 1.000000000000000000 ) ) ;
#132 = DIRECTION ( 'NONE',  ( -1.000000000000000000, 0.0000000000000000000, 0.0000000000000000000 ) ) ;
#133 = DATE_AND_TIME ( #118, #97 ) ;
#134 = COORDINATED_UNIVERSAL_TIME_OFFSET ( 5, 0, .BEHIND. ) ;
#135 = CC_DESIGN_PERSON_AND_ORGANIZATION_ASSIGNMENT ( #156, #254, ( #279 ) ) ;
#136 = AXIS2_PLACEMENT_3D ( 'NONE', #364, #43, #345 ) ;
#137 = DIRECTION ( 'NONE',  ( -1.000000000000000000, 0.0000000000000000000, 0.0000000000000000000 ) ) ;
#138 = CARTESIAN_POINT ( 'NONE',  ( -6.103116863000204600, 0.0000000000000000000, 0.9397329551366351300 ) ) ;
#139 = EDGE_LOOP ( 'NONE', ( #249, #299, #276, #178 ) ) ;
#140 = CIRCLE ( 'NONE', #13, 6.349999999999999600 ) ;
#141 = APPROVAL_DATE_TIME ( #361, #340 ) ;
#142 = DIRECTION ( 'NONE',  ( 1.000000000000000000, 0.0000000000000000000, 0.0000000000000000000 ) ) ;
#143 = CLOSED_SHELL ( 'NONE', ( #14, #269, #170, #354, #62, #236, #112, #326, #204, #86 ) ) ;
#144 = AXIS2_PLACEMENT_3D ( 'NONE', #38, #169, #305 ) ;
#145 = CC_DESIGN_PERSON_AND_ORGANIZATION_ASSIGNMENT ( #320, #168, ( #172 ) ) ;
#146 = AXIS2_PLACEMENT_3D ( 'NONE', #61, #218, #351 ) ;
#147 = FACE_OUTER_BOUND ( 'NONE', #84, .T. ) ;
#148 = VERTEX_POINT ( 'NONE', #176 ) ;
#149 = DIRECTION ( 'NONE',  ( 0.0000000000000000000, 0.0000000000000000000, -1.000000000000000000 ) ) ;
#150 = EDGE_CURVE ( 'NONE', #246, #316, #366, .T. ) ;
#151 = CIRCLE ( 'NONE', #167, 6.103116863000221500 ) ;
#152 = ORIENTED_EDGE ( 'NONE', *, *, #160, .T. ) ;
#153 = CARTESIAN_POINT ( 'NONE',  ( 6.349999999999999600, 0.0000000000000000000, 0.6557028513564378000 ) ) ;
#154 = DIRECTION ( 'NONE',  ( 0.0000000000000000000, 0.0000000000000000000, -1.000000000000000000 ) ) ;
#155 = ORIENTED_EDGE ( 'NONE', *, *, #82, .T. ) ;
#156 = PERSON_AND_ORGANIZATION ( #242, #194 ) ;
#157 = PERSON_AND_ORGANIZATION_ROLE ( 'design_owner' ) ;
#158 = LINE ( 'NONE', #253, #129 ) ;
#159 = UNCERTAINTY_MEASURE_WITH_UNIT (LENGTH_MEASURE( 1.000000000000000100E-005 ), #334, 'distance_accuracy_value', 'NONE');
#160 = EDGE_CURVE ( 'NONE', #293, #359, #257, .T. ) ;
#161 = EDGE_CURVE ( 'NONE', #247, #310, #181, .T. ) ;
#162 = COORDINATED_UNIVERSAL_TIME_OFFSET ( 5, 0, .BEHIND. ) ;
#163 = DIRECTION ( 'NONE',  ( -0.0000000000000000000, -0.0000000000000000000, 1.000000000000000000 ) ) ;
#164 = DIRECTION ( 'NONE',  ( -1.224646799147353200E-016, -1.000000000000000000, 0.0000000000000000000 ) ) ;
#165 = COORDINATED_UNIVERSAL_TIME_OFFSET ( 5, 0, .BEHIND. ) ;
#166 = AXIS2_PLACEMENT_3D ( 'NONE', #94, #15, #55 ) ;
#167 = AXIS2_PLACEMENT_3D ( 'NONE', #121, #282, #72 ) ;
#168 = PERSON_AND_ORGANIZATION_ROLE ( 'creator' ) ;
#169 = DIRECTION ( 'NONE',  ( -0.0000000000000000000, -0.0000000000000000000, 1.000000000000000000 ) ) ;
#170 = ADVANCED_FACE ( 'NONE', ( #307 ), #275, .T. ) ;
#171 = PERSON_AND_ORGANIZATION_ROLE ( 'creator' ) ;
#172 = PRODUCT_DEFINITION ( 'UNKNOWN', '', #349, #81 ) ;
#173 = EDGE_LOOP ( 'NONE', ( #174, #350, #155, #16 ) ) ;
#174 = ORIENTED_EDGE ( 'NONE', *, *, #224, .T. ) ;
#175 = PRODUCT ( '4314-E0W', '4314-E0W', '', ( #280 ) ) ;
#176 = CARTESIAN_POINT ( 'NONE',  ( 0.0000000000000000000, 6.103116863000227700, -0.9397329551366351300 ) ) ;
#177 = AXIS2_PLACEMENT_3D ( 'NONE', #120, #273, #132 ) ;
#178 = ORIENTED_EDGE ( 'NONE', *, *, #248, .T. ) ;
#179 = APPROVAL_STATUS ( 'not_yet_approved' ) ;
#180 = ORIENTED_EDGE ( 'NONE', *, *, #190, .F. ) ;
#181 = CIRCLE ( 'NONE', #308, 45.60000000000000900 ) ;
#182 = DATE_AND_TIME ( #2, #230 ) ;
#183 = CIRCLE ( 'NONE', #297, 6.103116863000204600 ) ;
#184 = APPLICATION_PROTOCOL_DEFINITION ( 'international standard', 'config_control_design', 1994, #235 ) ;
#185 = DIRECTION ( 'NONE',  ( 0.6560280535293936400, 0.0000000000000000000, 0.7547365056643510200 ) ) ;
#186 = LINE ( 'NONE', #347, #75 ) ;
#187 = PERSON_AND_ORGANIZATION ( #242, #194 ) ;
#188 = DIRECTION ( 'NONE',  ( -0.0000000000000000000, -0.0000000000000000000, 1.000000000000000000 ) ) ;
#189 = FACE_OUTER_BOUND ( 'NONE', #48, .T. ) ;
#190 = EDGE_CURVE ( 'NONE', #316, #47, #342, .T. ) ;
#191 = FACE_OUTER_BOUND ( 'NONE', #122, .T. ) ;
#192 = APPROVAL_PERSON_ORGANIZATION ( #115, #76, #281 ) ;
#193 = COORDINATED_UNIVERSAL_TIME_OFFSET ( 5, 0, .BEHIND. ) ;
#194 = ORGANIZATION ( 'UNSPECIFIED', 'UNSPECIFIED', '' ) ;
#195 = APPROVAL_ROLE ( '' ) ;
#196 = AXIS2_PLACEMENT_3D ( 'NONE', #319, #291, #124 ) ;
#197 = CARTESIAN_POINT ( 'NONE',  ( 0.0000000000000000000, 0.0000000000000000000, -0.9397329551366351300 ) ) ;
#198 = CARTESIAN_POINT ( 'NONE',  ( -6.349999999999999600, 7.776507174585692200E-016, 0.6557028513564378000 ) ) ;
#199 = CIRCLE ( 'NONE', #229, 45.60000000000000100 ) ;
#200 = CONICAL_SURFACE ( 'NONE', #337, 6.349999999999999600, 0.7155439511613519400 ) ;
#201 = DIRECTION ( 'NONE',  ( 1.000000000000000000, -0.0000000000000000000, 0.0000000000000000000 ) ) ;
#202 = CARTESIAN_POINT ( 'NONE',  ( 0.0000000000000000000, 0.0000000000000000000, -44.25000000000000700 ) ) ;
#203 = CARTESIAN_POINT ( 'NONE',  ( 6.349999999999999600, 0.0000000000000000000, -0.6557028513564516800 ) ) ;
#204 = ADVANCED_FACE ( 'NONE', ( #327 ), #88, .T. ) ;
#205 = SPHERICAL_SURFACE ( 'NONE', #146, 45.60000000000000100 ) ;
#206 = CIRCLE ( 'NONE', #264, 45.60000000000000100 ) ;
#207 = ORIENTED_EDGE ( 'NONE', *, *, #104, .F. ) ;
#208 = EDGE_CURVE ( 'NONE', #148, #357, #110, .T. ) ;
#209 = CARTESIAN_POINT ( 'NONE',  ( 0.0000000000000000000, 0.0000000000000000000, -0.6557028513564516800 ) ) ;
#210 = ORIENTED_EDGE ( 'NONE', *, *, #74, .T. ) ;
#211 = EDGE_LOOP ( 'NONE', ( #3, #332, #220, #304, #239 ) ) ;
#212 = DIRECTION ( 'NONE',  ( 1.000000000000000000, 0.0000000000000000000, 0.0000000000000000000 ) ) ;
#213 = CARTESIAN_POINT ( 'NONE',  ( -6.103116863000214400, 0.0000000000000000000, 0.9397329551366351300 ) ) ;
#214 = CIRCLE ( 'NONE', #136, 6.349999999999999600 ) ;
#215 = CONICAL_SURFACE ( 'NONE', #177, 6.103116863000214400, 0.7155439511613433900 ) ;
#216 = DIRECTION ( 'NONE',  ( 0.0000000000000000000, 0.0000000000000000000, -1.000000000000000000 ) ) ;
#217 = EDGE_CURVE ( 'NONE', #40, #7, #158, .T. ) ;
#218 = DIRECTION ( 'NONE',  ( -1.000000000000000000, 0.0000000000000000000, 0.0000000000000000000 ) ) ;
#219 = CIRCLE ( 'NONE', #223, 6.349999999999999600 ) ;
#220 = ORIENTED_EDGE ( 'NONE', *, *, #224, .F. ) ;
#221 = SPHERICAL_SURFACE ( 'NONE', #233, 45.60000000000000100 ) ;
#222 = PRODUCT_RELATED_PRODUCT_CATEGORY ( 'detail', '', ( #175 ) ) ;
#223 = AXIS2_PLACEMENT_3D ( 'NONE', #91, #163, #302 ) ;
#224 = EDGE_CURVE ( 'NONE', #40, #316, #19, .T. ) ;
#225 = SHAPE_DEFINITION_REPRESENTATION ( #331, #341 ) ;
#226 = EDGE_CURVE ( 'NONE', #357, #40, #70, .T. ) ;
#227 = CC_DESIGN_SECURITY_CLASSIFICATION ( #279, ( #349 ) ) ;
#228 = CARTESIAN_POINT ( 'NONE',  ( -6.349999999999999600, 7.776507174585692200E-016, 1.350000000000000100 ) ) ;
#229 = AXIS2_PLACEMENT_3D ( 'NONE', #24, #212, #1 ) ;
#230 = LOCAL_TIME ( 16, 44, 16.00000000000000000, #193 ) ;
#231 = ORIENTED_EDGE ( 'NONE', *, *, #160, .F. ) ;
#232 = DIRECTION ( 'NONE',  ( -1.000000000000000000, 1.224646799147353200E-016, 0.0000000000000000000 ) ) ;
#233 = AXIS2_PLACEMENT_3D ( 'NONE', #93, #265, #89 ) ;
#234 = CARTESIAN_POINT ( 'NONE',  ( 0.0000000000000000000, 0.0000000000000000000, 0.9397329551366351300 ) ) ;
#235 = APPLICATION_CONTEXT ( 'configuration controlled 3d designs of mechanical parts and assemblies' ) ;
#236 = ADVANCED_FACE ( 'NONE', ( #260 ), #119, .T. ) ;
#237 = DIRECTION ( 'NONE',  ( -1.000000000000000000, 0.0000000000000000000, 0.0000000000000000000 ) ) ;
#238 = CIRCLE ( 'NONE', #360, 6.103116863000204600 ) ;
#239 = ORIENTED_EDGE ( 'NONE', *, *, #208, .F. ) ;
#240 = CC_DESIGN_APPROVAL ( #76, ( #279 ) ) ;
#241 = AXIS2_PLACEMENT_3D ( 'NONE', #335, #33, #278 ) ;
#242 = PERSON ( 'UNSPECIFIED', 'UNSPECIFIED', 'UNSPECIFIED', ('UNSPECIFIED'), ('UNSPECIFIED'), ('UNSPECIFIED') ) ;
#243 = APPROVAL ( #179, 'UNSPECIFIED' ) ;
#244 = CARTESIAN_POINT ( 'NONE',  ( 0.0000000000000000000, 0.0000000000000000000, 0.0000000000000000000 ) ) ;
#245 = LOCAL_TIME ( 16, 44, 16.00000000000000000, #162 ) ;
#246 = VERTEX_POINT ( 'NONE', #338 ) ;
#247 = VERTEX_POINT ( 'NONE', #262 ) ;
#248 = EDGE_CURVE ( 'NONE', #246, #148, #58, .T. ) ;
#249 = ORIENTED_EDGE ( 'NONE', *, *, #74, .F. ) ;
#250 = AXIS2_PLACEMENT_3D ( 'NONE', #272, #154, #23 ) ;
#251 = VECTOR ( 'NONE', #185, 1000.000000000000200 ) ;
#252 = ORIENTED_EDGE ( 'NONE', *, *, #37, .T. ) ;
#253 = CARTESIAN_POINT ( 'NONE',  ( 6.349999999999999600, 0.0000000000000000000, 1.350000000000000100 ) ) ;
#254 = PERSON_AND_ORGANIZATION_ROLE ( 'classification_officer' ) ;
#255 = CIRCLE ( 'NONE', #46, 45.60000000000000100 ) ;
#256 = CARTESIAN_POINT ( 'NONE',  ( 0.0000000000000000000, 0.0000000000000000000, -44.25000000000000700 ) ) ;
#257 = CIRCLE ( 'NONE', #144, 6.103116863000204600 ) ;
#258 = FACE_OUTER_BOUND ( 'NONE', #45, .T. ) ;
#259 = DIRECTION ( 'NONE',  ( -0.0000000000000000000, -0.0000000000000000000, 1.000000000000000000 ) ) ;
#260 = FACE_OUTER_BOUND ( 'NONE', #41, .T. ) ;
#261 = AXIS2_PLACEMENT_3D ( 'NONE', #274, #267, #352 ) ;
#262 = CARTESIAN_POINT ( 'NONE',  ( 0.0000000000000000000, 6.103116863000218800, 0.9397329551366351300 ) ) ;
#263 = DIRECTION ( 'NONE',  ( -0.6560280535293873100, 0.0000000000000000000, -0.7547365056643566800 ) ) ;
#264 = AXIS2_PLACEMENT_3D ( 'NONE', #256, #232, #164 ) ;
#265 = DIRECTION ( 'NONE',  ( -1.000000000000000000, 0.0000000000000000000, 0.0000000000000000000 ) ) ;
#266 = DIRECTION ( 'NONE',  ( 1.000000000000000000, 0.0000000000000000000, 0.0000000000000000000 ) ) ;
#267 = DIRECTION ( 'NONE',  ( -0.0000000000000000000, -0.0000000000000000000, 1.000000000000000000 ) ) ;
#268 = CYLINDRICAL_SURFACE ( 'NONE', #261, 6.349999999999999600 ) ;
#269 = ADVANCED_FACE ( 'NONE', ( #294 ), #200, .T. ) ;
#270 = EDGE_CURVE ( 'NONE', #359, #247, #183, .T. ) ;
#271 =( NAMED_UNIT ( * ) SI_UNIT ( $, .STERADIAN. ) SOLID_ANGLE_UNIT ( ) );
#272 = CARTESIAN_POINT ( 'NONE',  ( 0.0000000000000000000, 0.0000000000000000000, 0.9397329551366351300 ) ) ;
#273 = DIRECTION ( 'NONE',  ( 0.0000000000000000000, 0.0000000000000000000, -1.000000000000000000 ) ) ;
#274 = CARTESIAN_POINT ( 'NONE',  ( 0.0000000000000000000, 0.0000000000000000000, 1.350000000000000100 ) ) ;
#275 = SPHERICAL_SURFACE ( 'NONE', #166, 45.60000000000000100 ) ;
#276 = ORIENTED_EDGE ( 'NONE', *, *, #125, .T. ) ;
#277 = ORIENTED_EDGE ( 'NONE', *, *, #104, .T. ) ;
#278 = DIRECTION ( 'NONE',  ( 1.000000000000000000, 0.0000000000000000000, 0.0000000000000000000 ) ) ;
#279 = SECURITY_CLASSIFICATION ( '', '', #329 ) ;
#280 = MECHANICAL_CONTEXT ( 'NONE', #235, 'mechanical' ) ;
#281 = APPROVAL_ROLE ( '' ) ;
#282 = DIRECTION ( 'NONE',  ( 0.0000000000000000000, 0.0000000000000000000, -1.000000000000000000 ) ) ;
#283 = CARTESIAN_POINT ( 'NONE',  ( -7.474162531095463200E-016, -6.103116863000227700, -0.9397329551366351300 ) ) ;
#284 = ORIENTED_EDGE ( 'NONE', *, *, #18, .T. ) ;
#285 = DIRECTION ( 'NONE',  ( -1.000000000000000000, 0.0000000000000000000, 0.0000000000000000000 ) ) ;
#286 = ORIENTED_EDGE ( 'NONE', *, *, #161, .T. ) ;
#287 = DIRECTION ( 'NONE',  ( 1.000000000000000000, 0.0000000000000000000, 0.0000000000000000000 ) ) ;
#288 = DATE_TIME_ROLE ( 'creation_date' ) ;
#289 = PERSON_AND_ORGANIZATION ( #242, #194 ) ;
#290 = APPROVAL_PERSON_ORGANIZATION ( #187, #340, #195 ) ;
#291 = DIRECTION ( 'NONE',  ( -0.0000000000000000000, -0.0000000000000000000, 1.000000000000000000 ) ) ;
#292 = ORIENTED_EDGE ( 'NONE', *, *, #217, .T. ) ;
#293 = VERTEX_POINT ( 'NONE', #325 ) ;
#294 = FACE_OUTER_BOUND ( 'NONE', #211, .T. ) ;
#295 = EDGE_CURVE ( 'NONE', #358, #47, #36, .T. ) ;
#296 = CARTESIAN_POINT ( 'NONE',  ( 0.0000000000000000000, 0.0000000000000000000, 44.25000000000000700 ) ) ;
#297 = AXIS2_PLACEMENT_3D ( 'NONE', #234, #113, #10 ) ;
#298 = FACE_OUTER_BOUND ( 'NONE', #173, .T. ) ;
#299 = ORIENTED_EDGE ( 'NONE', *, *, #108, .T. ) ;
#300 = CARTESIAN_POINT ( 'NONE',  ( 0.0000000000000000000, 0.0000000000000000000, -0.6557028513564516800 ) ) ;
#301 = CC_DESIGN_PERSON_AND_ORGANIZATION_ASSIGNMENT ( #69, #39, ( #349 ) ) ;
#302 = DIRECTION ( 'NONE',  ( 1.000000000000000000, 0.0000000000000000000, 0.0000000000000000000 ) ) ;
#303 = CYLINDRICAL_SURFACE ( 'NONE', #323, 6.349999999999999600 ) ;
#304 = ORIENTED_EDGE ( 'NONE', *, *, #226, .F. ) ;
#305 = DIRECTION ( 'NONE',  ( -1.000000000000000000, 0.0000000000000000000, 0.0000000000000000000 ) ) ;
#306 = DIRECTION ( 'NONE',  ( 1.000000000000000000, 0.0000000000000000000, 0.0000000000000000000 ) ) ;
#307 = FACE_OUTER_BOUND ( 'NONE', #139, .T. ) ;
#308 = AXIS2_PLACEMENT_3D ( 'NONE', #27, #201, #49 ) ;
#309 = ORIENTED_EDGE ( 'NONE', *, *, #64, .F. ) ;
#310 = VERTEX_POINT ( 'NONE', #109 ) ;
#311 = AXIS2_PLACEMENT_3D ( 'NONE', #300, #188, #266 ) ;
#312 = APPROVAL_DATE_TIME ( #133, #76 ) ;
#313 = CONICAL_SURFACE ( 'NONE', #250, 6.103116863000214400, 0.7155439511613433900 ) ;
#314 = LOCAL_TIME ( 16, 44, 16.00000000000000000, #17 ) ;
#315 = AXIS2_PLACEMENT_3D ( 'NONE', #21, #149, #306 ) ;
#316 = VERTEX_POINT ( 'NONE', #324 ) ;
#317 = VECTOR ( 'NONE', #263, 1000.000000000000000 ) ;
#318 = DIRECTION ( 'NONE',  ( 1.000000000000000000, 0.0000000000000000000, 0.0000000000000000000 ) ) ;
#319 = CARTESIAN_POINT ( 'NONE',  ( 0.0000000000000000000, 0.0000000000000000000, -0.6557028513564516800 ) ) ;
#320 = PERSON_AND_ORGANIZATION ( #242, #194 ) ;
#321 = AXIS2_PLACEMENT_3D ( 'NONE', #202, #285, #102 ) ;
#322 = DIRECTION ( 'NONE',  ( 0.0000000000000000000, 0.0000000000000000000, 1.000000000000000000 ) ) ;
#323 = AXIS2_PLACEMENT_3D ( 'NONE', #103, #83, #142 ) ;
#324 = CARTESIAN_POINT ( 'NONE',  ( -6.349999999999999600, 7.776507174585692200E-016, -0.6557028513564516800 ) ) ;
#325 = CARTESIAN_POINT ( 'NONE',  ( -7.474162531095453400E-016, -6.103116863000218800, 0.9397329551366351300 ) ) ;
#326 = ADVANCED_FACE ( 'NONE', ( #107 ), #221, .T. ) ;
#327 = FACE_OUTER_BOUND ( 'NONE', #53, .T. ) ;
#328 = ORIENTED_EDGE ( 'NONE', *, *, #82, .F. ) ;
#329 = SECURITY_CLASSIFICATION_LEVEL ( 'unclassified' ) ;
#330 = APPROVAL_PERSON_ORGANIZATION ( #289, #243, #365 ) ;
#331 = PRODUCT_DEFINITION_SHAPE ( 'NONE', 'NONE',  #172 ) ;
#332 = ORIENTED_EDGE ( 'NONE', *, *, #150, .T. ) ;
#333 = DATE_TIME_ROLE ( 'classification_date' ) ;
#334 =( LENGTH_UNIT ( ) NAMED_UNIT ( * ) SI_UNIT ( .MILLI., .METRE. ) );
#335 = CARTESIAN_POINT ( 'NONE',  ( 0.0000000000000000000, 0.0000000000000000000, -0.9397329551366351300 ) ) ;
#336 = PERSON_AND_ORGANIZATION ( #242, #194 ) ;
#337 = AXIS2_PLACEMENT_3D ( 'NONE', #209, #60, #287 ) ;
#338 = CARTESIAN_POINT ( 'NONE',  ( -6.103116863000221500, 7.625334852840574200E-016, -0.9397329551366351300 ) ) ;
#339 = APPROVAL_STATUS ( 'not_yet_approved' ) ;
#340 = APPROVAL ( #367, 'UNSPECIFIED' ) ;
#341 = ADVANCED_BREP_SHAPE_REPRESENTATION ( '4314-E0W', ( #116, #95 ), #34 ) ;
#342 = LINE ( 'NONE', #228, #96 ) ;
#343 = VERTEX_POINT ( 'NONE', #283 ) ;
#344 = CARTESIAN_POINT ( 'NONE',  ( 6.103116863000204600, 7.625334852840563400E-016, 0.9397329551366351300 ) ) ;
#345 = DIRECTION ( 'NONE',  ( -1.000000000000000000, 0.0000000000000000000, 0.0000000000000000000 ) ) ;
#346 = CARTESIAN_POINT ( 'NONE',  ( 6.103116863000221500, 0.0000000000000000000, -0.9397329551366351300 ) ) ;
#347 = CARTESIAN_POINT ( 'NONE',  ( 6.103116863000214400, 7.474162531095447400E-016, 0.9397329551366351300 ) ) ;
#348 = CALENDAR_DATE ( 2015, 17, 6 ) ;
#349 = PRODUCT_DEFINITION_FORMATION_WITH_SPECIFIED_SOURCE ( 'ANY', '', #175, .NOT_KNOWN. ) ;
#350 = ORIENTED_EDGE ( 'NONE', *, *, #190, .T. ) ;
#351 = DIRECTION ( 'NONE',  ( 0.0000000000000000000, 1.000000000000000000, 0.0000000000000000000 ) ) ;
#352 = DIRECTION ( 'NONE',  ( 1.000000000000000000, 0.0000000000000000000, 0.0000000000000000000 ) ) ;
#353 = CARTESIAN_POINT ( 'NONE',  ( 0.0000000000000000000, 2.792194702055965200E-015, -1.349999999999997000 ) ) ;
#354 = ADVANCED_FACE ( 'NONE', ( #298 ), #268, .T. ) ;
#355 = APPLICATION_PROTOCOL_DEFINITION ( 'international standard', 'config_control_design', 1994, #22 ) ;
#356 = AXIS2_PLACEMENT_3D ( 'NONE', #197, #216, #318 ) ;
#357 = VERTEX_POINT ( 'NONE', #346 ) ;
#358 = VERTEX_POINT ( 'NONE', #138 ) ;
#359 = VERTEX_POINT ( 'NONE', #344 ) ;
#360 = AXIS2_PLACEMENT_3D ( 'NONE', #92, #131, #137 ) ;
#361 = DATE_AND_TIME ( #348, #245 ) ;
#362 = DATE_AND_TIME ( #32, #314 ) ;
#363 = CC_DESIGN_DATE_AND_TIME_ASSIGNMENT ( #182, #288, ( #172 ) ) ;
#364 = CARTESIAN_POINT ( 'NONE',  ( 0.0000000000000000000, 0.0000000000000000000, 0.6557028513564378000 ) ) ;
#365 = APPROVAL_ROLE ( '' ) ;
#366 = LINE ( 'NONE', #100, #114 ) ;
#367 = APPROVAL_STATUS ( 'not_yet_approved' ) ;
ENDSEC;
END-ISO-10303-21;
