ISO-10303-21;
HEADER;
FILE_DESCRIPTION (( 'STEP AP214' ),
    '1' );
FILE_NAME ('4497-E0W.STEP',
    '2009-12-21T17:06:45',
    ( ' ' ),
    ( ' ' ),
    'SwSTEP 2.0',
    'SolidWorks 2009',
    '' );
FILE_SCHEMA (( 'AUTOMOTIVE_DESIGN' ));
ENDSEC;

DATA;
#1 = EDGE_LOOP ( 'NONE', ( #43, #4, #21, #10 ) ) ;
#2 = ORIENTED_EDGE ( 'NONE', *, *, #39, .F. ) ;
#3 = VERTEX_POINT ( 'NONE', #54 ) ;
#4 = ORIENTED_EDGE ( 'NONE', *, *, #26, .T. ) ;
#5 = ADVANCED_FACE ( 'NONE', ( #53 ), #87, .T. ) ;
#6 = EDGE_CURVE ( 'NONE', #29, #22, #83, .T. ) ;
#7 = ADVANCED_FACE ( 'NONE', ( #84 ), #89, .T. ) ;
#8 = ORIENTED_EDGE ( 'NONE', *, *, #16, .T. ) ;
#9 = EDGE_LOOP ( 'NONE', ( #2, #11, #8, #47, #12 ) ) ;
#10 = ORIENTED_EDGE ( 'NONE', *, *, #42, .T. ) ;
#11 = ORIENTED_EDGE ( 'NONE', *, *, #6, .T. ) ;
#12 = ORIENTED_EDGE ( 'NONE', *, *, #41, .F. ) ;
#13 = ORIENTED_EDGE ( 'NONE', *, *, #19, .F. ) ;
#14 = ADVANCED_FACE ( 'NONE', ( #100 ), #101, .F. ) ;
#15 = ORIENTED_EDGE ( 'NONE', *, *, #16, .F. ) ;
#16 = EDGE_CURVE ( 'NONE', #22, #31, #135, .T. ) ;
#17 = EDGE_LOOP ( 'NONE', ( #24, #33, #28, #35 ) ) ;
#18 = EDGE_CURVE ( 'NONE', #45, #38, #133, .T. ) ;
#19 = EDGE_CURVE ( 'NONE', #22, #29, #148, .T. ) ;
#20 = ADVANCED_FACE ( 'NONE', ( #128 ), #171, .T. ) ;
#21 = ORIENTED_EDGE ( 'NONE', *, *, #30, .T. ) ;
#22 = VERTEX_POINT ( 'NONE', #169 ) ;
#23 = ADVANCED_FACE ( 'NONE', ( #170 ), #185, .T. ) ;
#24 = ORIENTED_EDGE ( 'NONE', *, *, #18, .T. ) ;
#25 = EDGE_LOOP ( 'NONE', ( #37, #34, #40, #44, #15 ) ) ;
#26 = EDGE_CURVE ( 'NONE', #3, #31, #177, .T. ) ;
#27 = VERTEX_POINT ( 'NONE', #187 ) ;
#28 = ORIENTED_EDGE ( 'NONE', *, *, #36, .T. ) ;
#29 = VERTEX_POINT ( 'NONE', #186 ) ;
#30 = EDGE_CURVE ( 'NONE', #31, #45, #166, .T. ) ;
#31 = VERTEX_POINT ( 'NONE', #229 ) ;
#32 = MANIFOLD_SOLID_BREP ( 'NONE', #55 ) ;
#33 = ORIENTED_EDGE ( 'NONE', *, *, #41, .T. ) ;
#34 = ORIENTED_EDGE ( 'NONE', *, *, #39, .T. ) ;
#35 = ORIENTED_EDGE ( 'NONE', *, *, #42, .F. ) ;
#36 = EDGE_CURVE ( 'NONE', #3, #27, #211, .T. ) ;
#37 = ORIENTED_EDGE ( 'NONE', *, *, #19, .T. ) ;
#38 = VERTEX_POINT ( 'NONE', #190 ) ;
#39 = EDGE_CURVE ( 'NONE', #29, #38, #224, .T. ) ;
#40 = ORIENTED_EDGE ( 'NONE', *, *, #18, .F. ) ;
#41 = EDGE_CURVE ( 'NONE', #38, #3, #225, .T. ) ;
#42 = EDGE_CURVE ( 'NONE', #45, #27, #222, .T. ) ;
#43 = ORIENTED_EDGE ( 'NONE', *, *, #36, .F. ) ;
#44 = ORIENTED_EDGE ( 'NONE', *, *, #30, .F. ) ;
#45 = VERTEX_POINT ( 'NONE', #227 ) ;
#46 = EDGE_LOOP ( 'NONE', ( #13, #56 ) ) ;
#47 = ORIENTED_EDGE ( 'NONE', *, *, #26, .F. ) ;
#48 = PRESENTATION_LAYER_ASSIGNMENT (  '', '', ( #49 ) ) ;
#49 = STYLED_ITEM ( 'NONE', ( #50 ), #5 ) ;
#50 = PRESENTATION_STYLE_ASSIGNMENT (( #51 ) ) ;
#51 = SURFACE_STYLE_USAGE ( .BOTH. , #52 ) ;
#52 = SURFACE_SIDE_STYLE ('',( #57 ) ) ;
#53 = FACE_OUTER_BOUND ( 'NONE', #1, .T. ) ;
#54 = CARTESIAN_POINT ( 'NONE',  ( -1.555250069354420500E-015, -12.70000000000001000, 0.4740388339860841500 ) ) ;
#55 = CLOSED_SHELL ( 'NONE', ( #20, #23, #5, #7, #14 ) ) ;
#56 = ORIENTED_EDGE ( 'NONE', *, *, #6, .F. ) ;
#57 = SURFACE_STYLE_FILL_AREA ( #58 ) ;
#58 = FILL_AREA_STYLE ('',( #59 ) ) ;
#59 = FILL_AREA_STYLE_COLOUR ( '', #60 ) ;
#60 = COLOUR_RGB ( '',0.9568627450980391500, 0.9490196078431372100, 0.9607843137254902200 ) ;
#61 =( GEOMETRIC_REPRESENTATION_CONTEXT ( 3 ) GLOBAL_UNCERTAINTY_ASSIGNED_CONTEXT ( ( #209 ) ) GLOBAL_UNIT_ASSIGNED_CONTEXT ( ( #213, #212, #210 ) ) REPRESENTATION_CONTEXT ( 'NONE', 'WORKASPACE' ) );
#62 = FILL_AREA_STYLE ('',( #63 ) ) ;
#63 = FILL_AREA_STYLE_COLOUR ( '', #64 ) ;
#64 = COLOUR_RGB ( '',0.9568627450980391500, 0.9490196078431372100, 0.9607843137254902200 ) ;
#65 = DIRECTION ( 'NONE',  ( 1.000000000000000000, 0.0000000000000000000, 0.0000000000000000000 ) ) ;
#66 = DIRECTION ( 'NONE',  ( -0.0000000000000000000, -0.0000000000000000000, 1.000000000000000000 ) ) ;
#67 = DIRECTION ( 'NONE',  ( -1.000000000000000000, 0.0000000000000000000, 0.0000000000000000000 ) ) ;
#68 = PRESENTATION_LAYER_ASSIGNMENT (  '', '', ( #69 ) ) ;
#69 = STYLED_ITEM ( 'NONE', ( #70 ), #7 ) ;
#70 = PRESENTATION_STYLE_ASSIGNMENT (( #71 ) ) ;
#71 = SURFACE_STYLE_USAGE ( .BOTH. , #72 ) ;
#72 = SURFACE_SIDE_STYLE ('',( #73 ) ) ;
#73 = SURFACE_STYLE_FILL_AREA ( #62 ) ;
#74 = UNCERTAINTY_MEASURE_WITH_UNIT (LENGTH_MEASURE( 1.000000000000000100E-005 ), #80, 'distance_accuracy_value', 'NONE');
#75 = DIRECTION ( 'NONE',  ( 0.0000000000000000000, 1.000000000000000000, 0.0000000000000000000 ) ) ;
#76 = CARTESIAN_POINT ( 'NONE',  ( 0.0000000000000000000, 0.0000000000000000000, -75.73500000000001400 ) ) ;
#77 =( GEOMETRIC_REPRESENTATION_CONTEXT ( 3 ) GLOBAL_UNCERTAINTY_ASSIGNED_CONTEXT ( ( #74 ) ) GLOBAL_UNIT_ASSIGNED_CONTEXT ( ( #80, #78, #79 ) ) REPRESENTATION_CONTEXT ( 'NONE', 'WORKASPACE' ) );
#78 =( NAMED_UNIT ( * ) PLANE_ANGLE_UNIT ( ) SI_UNIT ( $, .RADIAN. ) );
#79 =( NAMED_UNIT ( * ) SI_UNIT ( $, .STERADIAN. ) SOLID_ANGLE_UNIT ( ) );
#80 =( LENGTH_UNIT ( ) NAMED_UNIT ( * ) SI_UNIT ( .MILLI., .METRE. ) );
#81 = CARTESIAN_POINT ( 'NONE',  ( 0.0000000000000000000, 0.0000000000000000000, -1.525000000000000400 ) ) ;
#82 = AXIS2_PLACEMENT_3D ( 'NONE', #81, #66, #65 ) ;
#83 = CIRCLE ( 'NONE', #82, 12.69999999999999900 ) ;
#84 = FACE_OUTER_BOUND ( 'NONE', #9, .T. ) ;
#85 = AXIS2_PLACEMENT_3D ( 'NONE', #76, #67, #75 ) ;
#86 = MECHANICAL_DESIGN_GEOMETRIC_PRESENTATION_REPRESENTATION (  '', ( #49 ), #77 ) ;
#87 = SPHERICAL_SURFACE ( 'NONE', #85, 77.26000000000000500 ) ;
#88 = AXIS2_PLACEMENT_3D ( 'NONE', #107, #106, #109 ) ;
#89 = CYLINDRICAL_SURFACE ( 'NONE', #88, 12.69999999999999900 ) ;
#90 = DIRECTION ( 'NONE',  ( 1.000000000000000000, 0.0000000000000000000, 0.0000000000000000000 ) ) ;
#91 = DIRECTION ( 'NONE',  ( 0.0000000000000000000, -0.0000000000000000000, 1.000000000000000000 ) ) ;
#92 = CARTESIAN_POINT ( 'NONE',  ( 0.0000000000000000000, 5.602759106099140700E-016, -1.524999999999999900 ) ) ;
#93 =( LENGTH_UNIT ( ) NAMED_UNIT ( * ) SI_UNIT ( .MILLI., .METRE. ) );
#94 =( NAMED_UNIT ( * ) SI_UNIT ( $, .STERADIAN. ) SOLID_ANGLE_UNIT ( ) );
#95 = STYLED_ITEM ( 'NONE', ( #96 ), #14 ) ;
#96 = PRESENTATION_STYLE_ASSIGNMENT (( #97 ) ) ;
#97 = SURFACE_STYLE_USAGE ( .BOTH. , #102 ) ;
#98 = AXIS2_PLACEMENT_3D ( 'NONE', #92, #91, #90 ) ;
#99 = COLOUR_RGB ( '',0.9568627450980391500, 0.9490196078431372100, 0.9607843137254902200 ) ;
#100 = FACE_OUTER_BOUND ( 'NONE', #46, .T. ) ;
#101 = PLANE ( 'NONE',  #98 ) ;
#102 = SURFACE_SIDE_STYLE ('',( #103 ) ) ;
#103 = SURFACE_STYLE_FILL_AREA ( #104 ) ;
#104 = FILL_AREA_STYLE ('',( #108 ) ) ;
#105 =( GEOMETRIC_REPRESENTATION_CONTEXT ( 3 ) GLOBAL_UNCERTAINTY_ASSIGNED_CONTEXT ( ( #112 ) ) GLOBAL_UNIT_ASSIGNED_CONTEXT ( ( #93, #111, #113 ) ) REPRESENTATION_CONTEXT ( 'NONE', 'WORKASPACE' ) );
#106 = DIRECTION ( 'NONE',  ( -0.0000000000000000000, -0.0000000000000000000, 1.000000000000000000 ) ) ;
#107 = CARTESIAN_POINT ( 'NONE',  ( 0.0000000000000000000, 0.0000000000000000000, 4.308132045400366600 ) ) ;
#108 = FILL_AREA_STYLE_COLOUR ( '', #99 ) ;
#109 = DIRECTION ( 'NONE',  ( 1.000000000000000000, 0.0000000000000000000, 0.0000000000000000000 ) ) ;
#110 =( LENGTH_UNIT ( ) NAMED_UNIT ( * ) SI_UNIT ( .MILLI., .METRE. ) );
#111 =( NAMED_UNIT ( * ) PLANE_ANGLE_UNIT ( ) SI_UNIT ( $, .RADIAN. ) );
#112 = UNCERTAINTY_MEASURE_WITH_UNIT (LENGTH_MEASURE( 1.000000000000000100E-005 ), #93, 'distance_accuracy_value', 'NONE');
#113 =( NAMED_UNIT ( * ) SI_UNIT ( $, .STERADIAN. ) SOLID_ANGLE_UNIT ( ) );
#114 = MECHANICAL_DESIGN_GEOMETRIC_PRESENTATION_REPRESENTATION (  '', ( #69 ), #115 ) ;
#115 =( GEOMETRIC_REPRESENTATION_CONTEXT ( 3 ) GLOBAL_UNCERTAINTY_ASSIGNED_CONTEXT ( ( #119 ) ) GLOBAL_UNIT_ASSIGNED_CONTEXT ( ( #110, #116, #94 ) ) REPRESENTATION_CONTEXT ( 'NONE', 'WORKASPACE' ) );
#116 =( NAMED_UNIT ( * ) PLANE_ANGLE_UNIT ( ) SI_UNIT ( $, .RADIAN. ) );
#117 = MECHANICAL_DESIGN_GEOMETRIC_PRESENTATION_REPRESENTATION (  '', ( #95 ), #105 ) ;
#118 = PRESENTATION_LAYER_ASSIGNMENT (  '', '', ( #95 ) ) ;
#119 = UNCERTAINTY_MEASURE_WITH_UNIT (LENGTH_MEASURE( 1.000000000000000100E-005 ), #110, 'distance_accuracy_value', 'NONE');
#120 =( NAMED_UNIT ( * ) PLANE_ANGLE_UNIT ( ) SI_UNIT ( $, .RADIAN. ) );
#121 = UNCERTAINTY_MEASURE_WITH_UNIT (LENGTH_MEASURE( 1.000000000000000100E-005 ), #141, 'distance_accuracy_value', 'NONE');
#122 =( NAMED_UNIT ( * ) SI_UNIT ( $, .STERADIAN. ) SOLID_ANGLE_UNIT ( ) );
#123 = VECTOR ( 'NONE', #129, 1000.000000000000000 ) ;
#124 = STYLED_ITEM ( 'NONE', ( #136 ), #20 ) ;
#125 = DIRECTION ( 'NONE',  ( -0.0000000000000000000, -0.0000000000000000000, 1.000000000000000000 ) ) ;
#126 = CARTESIAN_POINT ( 'NONE',  ( 12.69999999999999900, 0.0000000000000000000, 4.308132045400366600 ) ) ;
#127 = SURFACE_STYLE_USAGE ( .BOTH. , #147 ) ;
#128 = FACE_OUTER_BOUND ( 'NONE', #25, .T. ) ;
#129 = DIRECTION ( 'NONE',  ( -0.0000000000000000000, -0.0000000000000000000, 1.000000000000000000 ) ) ;
#130 = DIRECTION ( 'NONE',  ( -0.0000000000000000000, -0.0000000000000000000, 1.000000000000000000 ) ) ;
#131 = DIRECTION ( 'NONE',  ( 1.000000000000000000, 0.0000000000000000000, 0.0000000000000000000 ) ) ;
#132 = SURFACE_STYLE_FILL_AREA ( #146 ) ;
#133 = CIRCLE ( 'NONE', #145, 12.69999999999999900 ) ;
#134 = DIRECTION ( 'NONE',  ( 1.000000000000000000, 0.0000000000000000000, 0.0000000000000000000 ) ) ;
#135 = LINE ( 'NONE', #126, #123 ) ;
#136 = PRESENTATION_STYLE_ASSIGNMENT (( #127 ) ) ;
#137 = COLOUR_RGB ( '',0.9568627450980391500, 0.9490196078431372100, 0.9607843137254902200 ) ;
#138 = MECHANICAL_DESIGN_GEOMETRIC_PRESENTATION_REPRESENTATION (  '', ( #124 ), #168 ) ;
#139 = CARTESIAN_POINT ( 'NONE',  ( 0.0000000000000000000, 0.0000000000000000000, 0.4740388339860837100 ) ) ;
#140 = PRESENTATION_LAYER_ASSIGNMENT (  '', '', ( #124 ) ) ;
#141 =( LENGTH_UNIT ( ) NAMED_UNIT ( * ) SI_UNIT ( .MILLI., .METRE. ) );
#142 = CARTESIAN_POINT ( 'NONE',  ( 0.0000000000000000000, 0.0000000000000000000, -1.525000000000000400 ) ) ;
#143 = FILL_AREA_STYLE_COLOUR ( '', #137 ) ;
#144 = AXIS2_PLACEMENT_3D ( 'NONE', #142, #130, #134 ) ;
#145 = AXIS2_PLACEMENT_3D ( 'NONE', #139, #125, #131 ) ;
#146 = FILL_AREA_STYLE ('',( #143 ) ) ;
#147 = SURFACE_SIDE_STYLE ('',( #132 ) ) ;
#148 = CIRCLE ( 'NONE', #144, 12.69999999999999900 ) ;
#149 = SURFACE_STYLE_USAGE ( .BOTH. , #150 ) ;
#150 = SURFACE_SIDE_STYLE ('',( #160 ) ) ;
#151 =( NAMED_UNIT ( * ) PLANE_ANGLE_UNIT ( ) SI_UNIT ( $, .RADIAN. ) );
#152 = DIRECTION ( 'NONE',  ( -0.0000000000000000000, -0.0000000000000000000, 1.000000000000000000 ) ) ;
#153 = CARTESIAN_POINT ( 'NONE',  ( 0.0000000000000000000, 0.0000000000000000000, -75.73500000000001400 ) ) ;
#154 = AXIS2_PLACEMENT_3D ( 'NONE', #153, #155, #164 ) ;
#155 = DIRECTION ( 'NONE',  ( -1.000000000000000000, 0.0000000000000000000, 0.0000000000000000000 ) ) ;
#156 = DIRECTION ( 'NONE',  ( 1.000000000000000000, 0.0000000000000000000, 0.0000000000000000000 ) ) ;
#157 = DIRECTION ( 'NONE',  ( -0.0000000000000000000, -0.0000000000000000000, 1.000000000000000000 ) ) ;
#158 = CARTESIAN_POINT ( 'NONE',  ( 0.0000000000000000000, 0.0000000000000000000, 0.4740388339860837100 ) ) ;
#159 = AXIS2_PLACEMENT_3D ( 'NONE', #158, #157, #156 ) ;
#160 = SURFACE_STYLE_FILL_AREA ( #161 ) ;
#161 = FILL_AREA_STYLE ('',( #173 ) ) ;
#162 =( NAMED_UNIT ( * ) SI_UNIT ( $, .STERADIAN. ) SOLID_ANGLE_UNIT ( ) );
#163 = CARTESIAN_POINT ( 'NONE',  ( 0.0000000000000000000, 0.0000000000000000000, 4.308132045400366600 ) ) ;
#164 = DIRECTION ( 'NONE',  ( 0.0000000000000000000, 1.000000000000000000, 0.0000000000000000000 ) ) ;
#165 =( GEOMETRIC_REPRESENTATION_CONTEXT ( 3 ) GLOBAL_UNCERTAINTY_ASSIGNED_CONTEXT ( ( #188 ) ) GLOBAL_UNIT_ASSIGNED_CONTEXT ( ( #172, #151, #162 ) ) REPRESENTATION_CONTEXT ( 'NONE', 'WORKASPACE' ) );
#166 = CIRCLE ( 'NONE', #182, 12.69999999999999900 ) ;
#167 = ADVANCED_BREP_SHAPE_REPRESENTATION ( '4497-E0W', ( #32, #236 ), #61 ) ;
#168 =( GEOMETRIC_REPRESENTATION_CONTEXT ( 3 ) GLOBAL_UNCERTAINTY_ASSIGNED_CONTEXT ( ( #121 ) ) GLOBAL_UNIT_ASSIGNED_CONTEXT ( ( #141, #120, #122 ) ) REPRESENTATION_CONTEXT ( 'NONE', 'WORKASPACE' ) );
#169 = CARTESIAN_POINT ( 'NONE',  ( 12.69999999999999900, 0.0000000000000000000, -1.525000000000000400 ) ) ;
#170 = FACE_OUTER_BOUND ( 'NONE', #17, .T. ) ;
#171 = CYLINDRICAL_SURFACE ( 'NONE', #178, 12.69999999999999900 ) ;
#172 =( LENGTH_UNIT ( ) NAMED_UNIT ( * ) SI_UNIT ( .MILLI., .METRE. ) );
#173 = FILL_AREA_STYLE_COLOUR ( '', #189 ) ;
#174 = DIRECTION ( 'NONE',  ( 1.000000000000000000, 0.0000000000000000000, 0.0000000000000000000 ) ) ;
#175 = STYLED_ITEM ( 'NONE', ( #176 ), #23 ) ;
#176 = PRESENTATION_STYLE_ASSIGNMENT (( #149 ) ) ;
#177 = CIRCLE ( 'NONE', #159, 12.69999999999999900 ) ;
#178 = AXIS2_PLACEMENT_3D ( 'NONE', #163, #152, #174 ) ;
#179 = DIRECTION ( 'NONE',  ( 1.000000000000000000, 0.0000000000000000000, 0.0000000000000000000 ) ) ;
#180 = DIRECTION ( 'NONE',  ( -0.0000000000000000000, -0.0000000000000000000, 1.000000000000000000 ) ) ;
#181 = CARTESIAN_POINT ( 'NONE',  ( 0.0000000000000000000, 0.0000000000000000000, 0.4740388339860837100 ) ) ;
#182 = AXIS2_PLACEMENT_3D ( 'NONE', #181, #180, #179 ) ;
#183 = MECHANICAL_DESIGN_GEOMETRIC_PRESENTATION_REPRESENTATION (  '', ( #175 ), #165 ) ;
#184 = PRESENTATION_LAYER_ASSIGNMENT (  '', '', ( #175 ) ) ;
#185 = SPHERICAL_SURFACE ( 'NONE', #154, 77.26000000000000500 ) ;
#186 = CARTESIAN_POINT ( 'NONE',  ( -12.69999999999999900, 1.555250069354419100E-015, -1.525000000000000400 ) ) ;
#187 = CARTESIAN_POINT ( 'NONE',  ( 0.0000000000000000000, 4.730654344815844000E-015, 1.524999999999998600 ) ) ;
#188 = UNCERTAINTY_MEASURE_WITH_UNIT (LENGTH_MEASURE( 1.000000000000000100E-005 ), #172, 'distance_accuracy_value', 'NONE');
#189 = COLOUR_RGB ( '',0.9568627450980391500, 0.9490196078431372100, 0.9607843137254902200 ) ;
#190 = CARTESIAN_POINT ( 'NONE',  ( -12.69999999999999900, 1.555250069354419100E-015, 0.4740388339860837100 ) ) ;
#191 = DIRECTION ( 'NONE',  ( 0.0000000000000000000, 0.0000000000000000000, -1.000000000000000000 ) ) ;
#192 = DIRECTION ( 'NONE',  ( 1.000000000000000000, 0.0000000000000000000, 0.0000000000000000000 ) ) ;
#193 = CARTESIAN_POINT ( 'NONE',  ( 0.0000000000000000000, 0.0000000000000000000, -75.73500000000001400 ) ) ;
#194 = AXIS2_PLACEMENT_3D ( 'NONE', #193, #192, #191 ) ;
#195 = SURFACE_STYLE_FILL_AREA ( #199 ) ;
#196 =( GEOMETRIC_REPRESENTATION_CONTEXT ( 3 ) GLOBAL_UNCERTAINTY_ASSIGNED_CONTEXT ( ( #226 ) ) GLOBAL_UNIT_ASSIGNED_CONTEXT ( ( #230, #208, #228 ) ) REPRESENTATION_CONTEXT ( 'NONE', 'WORKASPACE' ) );
#197 = FILL_AREA_STYLE_COLOUR ( '', #214 ) ;
#198 = PRESENTATION_LAYER_ASSIGNMENT (  '', '', ( #221 ) ) ;
#199 = FILL_AREA_STYLE ('',( #197 ) ) ;
#200 = MECHANICAL_DESIGN_GEOMETRIC_PRESENTATION_REPRESENTATION (  '', ( #221 ), #196 ) ;
#201 = SURFACE_STYLE_USAGE ( .BOTH. , #204 ) ;
#202 = AXIS2_PLACEMENT_3D ( 'NONE', #207, #206, #205 ) ;
#203 = AXIS2_PLACEMENT_3D ( 'NONE', #220, #219, #218 ) ;
#204 = SURFACE_SIDE_STYLE ('',( #195 ) ) ;
#205 = DIRECTION ( 'NONE',  ( 1.000000000000000000, 0.0000000000000000000, 0.0000000000000000000 ) ) ;
#206 = DIRECTION ( 'NONE',  ( -0.0000000000000000000, -0.0000000000000000000, 1.000000000000000000 ) ) ;
#207 = CARTESIAN_POINT ( 'NONE',  ( 0.0000000000000000000, 0.0000000000000000000, 0.4740388339860837100 ) ) ;
#208 =( NAMED_UNIT ( * ) PLANE_ANGLE_UNIT ( ) SI_UNIT ( $, .RADIAN. ) );
#209 = UNCERTAINTY_MEASURE_WITH_UNIT (LENGTH_MEASURE( 1.000000000000000100E-005 ), #213, 'distance_accuracy_value', 'NONE');
#210 =( NAMED_UNIT ( * ) SI_UNIT ( $, .STERADIAN. ) SOLID_ANGLE_UNIT ( ) );
#211 = CIRCLE ( 'NONE', #203, 77.26000000000000500 ) ;
#212 =( NAMED_UNIT ( * ) PLANE_ANGLE_UNIT ( ) SI_UNIT ( $, .RADIAN. ) );
#213 =( LENGTH_UNIT ( ) NAMED_UNIT ( * ) SI_UNIT ( .MILLI., .METRE. ) );
#214 = COLOUR_RGB ( '',0.7960784313725489700, 0.8235294117647058400, 0.9372549019607843100 ) ;
#215 = DIRECTION ( 'NONE',  ( -0.0000000000000000000, -0.0000000000000000000, 1.000000000000000000 ) ) ;
#216 = VECTOR ( 'NONE', #215, 1000.000000000000000 ) ;
#217 = PRESENTATION_STYLE_ASSIGNMENT (( #201 ) ) ;
#218 = DIRECTION ( 'NONE',  ( -1.224606353822377300E-016, -1.000000000000000000, 0.0000000000000000000 ) ) ;
#219 = DIRECTION ( 'NONE',  ( -1.000000000000000000, 1.224606353822377300E-016, 0.0000000000000000000 ) ) ;
#220 = CARTESIAN_POINT ( 'NONE',  ( 0.0000000000000000000, 0.0000000000000000000, -75.73500000000001400 ) ) ;
#221 = STYLED_ITEM ( 'NONE', ( #217 ), #32 ) ;
#222 = CIRCLE ( 'NONE', #194, 77.26000000000000500 ) ;
#223 = CARTESIAN_POINT ( 'NONE',  ( -12.69999999999999900, 1.555250069354419100E-015, 4.308132045400366600 ) ) ;
#224 = LINE ( 'NONE', #223, #216 ) ;
#225 = CIRCLE ( 'NONE', #202, 12.69999999999999900 ) ;
#226 = UNCERTAINTY_MEASURE_WITH_UNIT (LENGTH_MEASURE( 1.000000000000000100E-005 ), #230, 'distance_accuracy_value', 'NONE');
#227 = CARTESIAN_POINT ( 'NONE',  ( 0.0000000000000000000, 12.70000000000001000, 0.4740388339860841500 ) ) ;
#228 =( NAMED_UNIT ( * ) SI_UNIT ( $, .STERADIAN. ) SOLID_ANGLE_UNIT ( ) );
#229 = CARTESIAN_POINT ( 'NONE',  ( 12.69999999999999900, 0.0000000000000000000, 0.4740388339860837100 ) ) ;
#230 =( LENGTH_UNIT ( ) NAMED_UNIT ( * ) SI_UNIT ( .MILLI., .METRE. ) );
#231 = STYLED_ITEM ( 'NONE', ( #239 ), #167 ) ;
#232 = MECHANICAL_DESIGN_GEOMETRIC_PRESENTATION_REPRESENTATION (  '', ( #231 ), #246 ) ;
#233 = UNCERTAINTY_MEASURE_WITH_UNIT (LENGTH_MEASURE( 1.000000000000000100E-005 ), #248, 'distance_accuracy_value', 'NONE');
#234 =( NAMED_UNIT ( * ) PLANE_ANGLE_UNIT ( ) SI_UNIT ( $, .RADIAN. ) );
#235 = DIRECTION ( 'NONE',  ( 0.0000000000000000000, 0.0000000000000000000, 1.000000000000000000 ) ) ;
#236 = AXIS2_PLACEMENT_3D ( 'NONE', #247, #235, #241 ) ;
#237 = FILL_AREA_STYLE_COLOUR ( '', #242 ) ;
#238 = SURFACE_SIDE_STYLE ('',( #249 ) ) ;
#239 = PRESENTATION_STYLE_ASSIGNMENT (( #244 ) ) ;
#240 = PRESENTATION_LAYER_ASSIGNMENT (  '', '', ( #231 ) ) ;
#241 = DIRECTION ( 'NONE',  ( 1.000000000000000000, 0.0000000000000000000, 0.0000000000000000000 ) ) ;
#242 = COLOUR_RGB ( '',0.7960784313725489700, 0.8235294117647058400, 0.9372549019607843100 ) ;
#243 = FILL_AREA_STYLE ('',( #237 ) ) ;
#244 = SURFACE_STYLE_USAGE ( .BOTH. , #238 ) ;
#245 =( NAMED_UNIT ( * ) SI_UNIT ( $, .STERADIAN. ) SOLID_ANGLE_UNIT ( ) );
#246 =( GEOMETRIC_REPRESENTATION_CONTEXT ( 3 ) GLOBAL_UNCERTAINTY_ASSIGNED_CONTEXT ( ( #233 ) ) GLOBAL_UNIT_ASSIGNED_CONTEXT ( ( #248, #234, #245 ) ) REPRESENTATION_CONTEXT ( 'NONE', 'WORKASPACE' ) );
#247 = CARTESIAN_POINT ( 'NONE',  ( 0.0000000000000000000, 0.0000000000000000000, 0.0000000000000000000 ) ) ;
#248 =( LENGTH_UNIT ( ) NAMED_UNIT ( * ) SI_UNIT ( .MILLI., .METRE. ) );
#249 = SURFACE_STYLE_FILL_AREA ( #243 ) ;
#250 = PRODUCT_CONTEXT ( 'NONE', #261, 'mechanical' ) ;
#251 = APPLICATION_PROTOCOL_DEFINITION ( 'draft international standard', 'automotive_design', 1998, #261 ) ;
#252 = PRODUCT ( '4497-E0W', '4497-E0W', '', ( #250 ) ) ;
#253 = SHAPE_DEFINITION_REPRESENTATION ( #260, #167 ) ;
#254 = PRODUCT_RELATED_PRODUCT_CATEGORY ( 'part', '', ( #252 ) ) ;
#255 = PRODUCT_DEFINITION_FORMATION_WITH_SPECIFIED_SOURCE ( 'ANY', '', #252, .NOT_KNOWN. ) ;
#256 = PRODUCT_DEFINITION ( 'UNKNOWN', '', #255, #257 ) ;
#257 = PRODUCT_DEFINITION_CONTEXT ( 'detailed design', #259, 'design' ) ;
#258 = APPLICATION_PROTOCOL_DEFINITION ( 'draft international standard', 'automotive_design', 1998, #259 ) ;
#259 = APPLICATION_CONTEXT ( 'automotive_design' ) ;
#260 = PRODUCT_DEFINITION_SHAPE ( 'NONE', 'NONE',  #256 ) ;
#261 = APPLICATION_CONTEXT ( 'automotive_design' ) ;
ENDSEC;
END-ISO-10303-21;
