ISO-10303-21;
HEADER;
FILE_DESCRIPTION (( 'STEP AP203' ),
    '1' );
FILE_NAME ('Web Model 37128MX_15749.step',
    '2020-10-19T15:41:09',
    ( '' ),
    ( '' ),
    'SwSTEP 2.0',
    'SolidWorks 2018',
    '' );
FILE_SCHEMA (( 'CONFIG_CONTROL_DESIGN' ));
ENDSEC;

DATA;
#1 = DATE_AND_TIME ( #50, #33 ) ;
#2 = VECTOR ( 'NONE', #38, 1000.000000000000000 ) ;
#3 = EDGE_LOOP ( 'NONE', ( #7, #143, #125, #63 ) ) ;
#4 = CARTESIAN_POINT ( 'NONE',  ( -12.49999999999999467, 12.49999999999999467, 3.000000000000000000 ) ) ;
#5 = DIRECTION ( 'NONE',  ( 0.0000000000000000000, 0.0000000000000000000, -1.000000000000000000 ) ) ;
#6 = DIRECTION ( 'NONE',  ( -1.000000000000000000, -1.387778780781445676E-16, 0.0000000000000000000 ) ) ;
#7 = ORIENTED_EDGE ( 'NONE', *, *, #178, .T. ) ;
#8 = CARTESIAN_POINT ( 'NONE',  ( -12.49999999999999467, -12.50000000000000533, 3.000000000000000000 ) ) ;
#9 = LINE ( 'NONE', #22, #149 ) ;
#10 = SECURITY_CLASSIFICATION_LEVEL ( 'unclassified' ) ;
#11 = CALENDAR_DATE ( 2020, 19, 10 ) ;
#12 = ORIENTED_EDGE ( 'NONE', *, *, #190, .T. ) ;
#13 = VERTEX_POINT ( 'NONE', #198 ) ;
#14 = COORDINATED_UNIVERSAL_TIME_OFFSET ( 5, 0, .BEHIND. ) ;
#15 = EDGE_LOOP ( 'NONE', ( #59, #55, #31, #225 ) ) ;
#16 = ORIENTED_EDGE ( 'NONE', *, *, #190, .F. ) ;
#17 = CARTESIAN_POINT ( 'NONE',  ( -12.49999999999999467, 12.49999999999999467, 3.000000000000000000 ) ) ;
#18 = ORIENTED_EDGE ( 'NONE', *, *, #196, .F. ) ;
#19 = PLANE ( 'NONE',  #182 ) ;
#20 = CARTESIAN_POINT ( 'NONE',  ( 12.50000000000000533, 12.49999999999999822, -3.000000000000000000 ) ) ;
#21 = EDGE_CURVE ( 'NONE', #148, #201, #214, .T. ) ;
#22 = CARTESIAN_POINT ( 'NONE',  ( 12.50000000000000533, -12.50000000000000178, -3.000000000000000000 ) ) ;
#23 = DIRECTION ( 'NONE',  ( -0.0000000000000000000, -1.000000000000000000, -0.0000000000000000000 ) ) ;
#24 = ORIENTED_EDGE ( 'NONE', *, *, #21, .T. ) ;
#25 = CARTESIAN_POINT ( 'NONE',  ( -12.49999999999999467, 12.49999999999999467, -3.000000000000000000 ) ) ;
#26 = DATE_TIME_ROLE ( 'creation_date' ) ;
#27 = PRODUCT_RELATED_PRODUCT_CATEGORY ( 'detail', '', ( #140 ) ) ;
#28 = CARTESIAN_POINT ( 'NONE',  ( -12.49999999999999467, -12.50000000000000533, 3.000000000000000000 ) ) ;
#29 = EDGE_CURVE ( 'NONE', #13, #201, #123, .T. ) ;
#30 = PERSON_AND_ORGANIZATION ( #203, #204 ) ;
#31 = ORIENTED_EDGE ( 'NONE', *, *, #129, .F. ) ;
#32 = LINE ( 'NONE', #98, #162 ) ;
#33 = LOCAL_TIME ( 11, 41, 9.000000000000000000, #185 ) ;
#34 = EDGE_CURVE ( 'NONE', #187, #206, #135, .T. ) ;
#35 = CALENDAR_DATE ( 2020, 19, 10 ) ;
#36 = FACE_OUTER_BOUND ( 'NONE', #3, .T. ) ;
#37 = VECTOR ( 'NONE', #174, 1000.000000000000000 ) ;
#38 = DIRECTION ( 'NONE',  ( -0.0000000000000000000, -0.0000000000000000000, -1.000000000000000000 ) ) ;
#39 = CC_DESIGN_PERSON_AND_ORGANIZATION_ASSIGNMENT ( #131, #173, ( #120 ) ) ;
#40 = EDGE_CURVE ( 'NONE', #66, #206, #90, .T. ) ;
#41 = APPROVAL ( #158, 'UNSPECIFIED' ) ;
#42 = PLANE ( 'NONE',  #180 ) ;
#43 = CARTESIAN_POINT ( 'NONE',  ( -12.49999999999999467, -12.50000000000000533, -3.000000000000000000 ) ) ;
#44 = CALENDAR_DATE ( 2020, 19, 10 ) ;
#45 = ORIENTED_EDGE ( 'NONE', *, *, #29, .F. ) ;
#46 = DIRECTION ( 'NONE',  ( -0.0000000000000000000, -0.0000000000000000000, -1.000000000000000000 ) ) ;
#47 = ADVANCED_FACE ( 'NONE', ( #100 ), #42, .F. ) ;
#48 = APPROVAL_STATUS ( 'not_yet_approved' ) ;
#49 = DIRECTION ( 'NONE',  ( 0.0000000000000000000, -0.0000000000000000000, 1.000000000000000000 ) ) ;
#50 = CALENDAR_DATE ( 2020, 19, 10 ) ;
#51 = CARTESIAN_POINT ( 'NONE',  ( -12.49999999999999467, -12.50000000000000533, 3.000000000000000000 ) ) ;
#52 = DIRECTION ( 'NONE',  ( 0.0000000000000000000, 1.000000000000000000, 0.0000000000000000000 ) ) ;
#53 = LINE ( 'NONE', #212, #77 ) ;
#54 = ORIENTED_EDGE ( 'NONE', *, *, #34, .F. ) ;
#55 = ORIENTED_EDGE ( 'NONE', *, *, #40, .F. ) ;
#56 = SECURITY_CLASSIFICATION ( '', '', #10 ) ;
#57 = EDGE_CURVE ( 'NONE', #222, #187, #127, .T. ) ;
#58 = LOCAL_TIME ( 11, 41, 9.000000000000000000, #99 ) ;
#59 = ORIENTED_EDGE ( 'NONE', *, *, #34, .T. ) ;
#60 = VECTOR ( 'NONE', #179, 1000.000000000000000 ) ;
#61 = ADVANCED_FACE ( 'NONE', ( #169 ), #151, .F. ) ;
#62 = AXIS2_PLACEMENT_3D ( 'NONE', #197, #49, #136 ) ;
#63 = ORIENTED_EDGE ( 'NONE', *, *, #29, .T. ) ;
#64 = DIRECTION ( 'NONE',  ( -1.000000000000000000, 0.0000000000000000000, 0.0000000000000000000 ) ) ;
#65 = DIRECTION ( 'NONE',  ( 1.387778780781445429E-16, -1.000000000000000000, 0.0000000000000000000 ) ) ;
#66 = VERTEX_POINT ( 'NONE', #17 ) ;
#67 = CARTESIAN_POINT ( 'NONE',  ( 12.50000000000000533, 12.49999999999999822, 3.000000000000000000 ) ) ;
#68 = DIRECTION ( 'NONE',  ( -0.0000000000000000000, -1.000000000000000000, -0.0000000000000000000 ) ) ;
#69 = ADVANCED_FACE ( 'NONE', ( #232 ), #80, .F. ) ;
#70 = DIRECTION ( 'NONE',  ( 1.000000000000000000, 1.387778780781445676E-16, -0.0000000000000000000 ) ) ;
#71 = MECHANICAL_CONTEXT ( 'NONE', #83, 'mechanical' ) ;
#72 = LINE ( 'NONE', #28, #79 ) ;
#73 = ORIENTED_EDGE ( 'NONE', *, *, #184, .F. ) ;
#74 = ORIENTED_EDGE ( 'NONE', *, *, #178, .F. ) ;
#75 = CC_DESIGN_PERSON_AND_ORGANIZATION_ASSIGNMENT ( #176, #154, ( #144 ) ) ;
#76 = LINE ( 'NONE', #95, #84 ) ;
#77 = VECTOR ( 'NONE', #23, 1000.000000000000000 ) ;
#78 = DIRECTION ( 'NONE',  ( -0.0000000000000000000, -0.0000000000000000000, -1.000000000000000000 ) ) ;
#79 = VECTOR ( 'NONE', #68, 1000.000000000000000 ) ;
#80 = PLANE ( 'NONE',  #164 ) ;
#81 = CLOSED_SHELL ( 'NONE', ( #47, #132, #153, #61, #230, #69 ) ) ;
#82 = COORDINATED_UNIVERSAL_TIME_OFFSET ( 5, 0, .BEHIND. ) ;
#83 = APPLICATION_CONTEXT ( 'configuration controlled 3d designs of mechanical parts and assemblies' ) ;
#84 = VECTOR ( 'NONE', #113, 1000.000000000000000 ) ;
#85 = CARTESIAN_POINT ( 'NONE',  ( 0.0000000000000000000, 0.0000000000000000000, 0.0000000000000000000 ) ) ;
#86 =( NAMED_UNIT ( * ) PLANE_ANGLE_UNIT ( ) SI_UNIT ( $, .RADIAN. ) );
#87 = CC_DESIGN_APPROVAL ( #41, ( #144 ) ) ;
#88 = COORDINATED_UNIVERSAL_TIME_OFFSET ( 5, 0, .BEHIND. ) ;
#89 = DIRECTION ( 'NONE',  ( 0.0000000000000000000, 0.0000000000000000000, 1.000000000000000000 ) ) ;
#90 = LINE ( 'NONE', #4, #195 ) ;
#91 =( GEOMETRIC_REPRESENTATION_CONTEXT ( 3 ) GLOBAL_UNCERTAINTY_ASSIGNED_CONTEXT ( ( #112 ) ) GLOBAL_UNIT_ASSIGNED_CONTEXT ( ( #194, #86, #121 ) ) REPRESENTATION_CONTEXT ( 'NONE', 'WORKASPACE' ) );
#92 = ORIENTED_EDGE ( 'NONE', *, *, #129, .T. ) ;
#93 = AXIS2_PLACEMENT_3D ( 'NONE', #170, #133, #111 ) ;
#94 = APPROVAL_DATE_TIME ( #146, #233 ) ;
#95 = CARTESIAN_POINT ( 'NONE',  ( 12.50000000000000533, -12.50000000000000178, 3.000000000000000000 ) ) ;
#96 = DIRECTION ( 'NONE',  ( 1.000000000000000000, 0.0000000000000000000, 0.0000000000000000000 ) ) ;
#97 = PRODUCT_DEFINITION_SHAPE ( 'NONE', 'NONE',  #144 ) ;
#98 = CARTESIAN_POINT ( 'NONE',  ( 12.50000000000000533, 12.49999999999999822, 3.000000000000000000 ) ) ;
#99 = COORDINATED_UNIVERSAL_TIME_OFFSET ( 5, 0, .BEHIND. ) ;
#100 = FACE_OUTER_BOUND ( 'NONE', #156, .T. ) ;
#101 = CARTESIAN_POINT ( 'NONE',  ( 12.50000000000000533, -12.50000000000000178, -3.000000000000000000 ) ) ;
#102 = DESIGN_CONTEXT ( 'detailed design', #213, 'design' ) ;
#103 = DIRECTION ( 'NONE',  ( 1.000000000000000000, 0.0000000000000000000, 0.0000000000000000000 ) ) ;
#104 = PERSON_AND_ORGANIZATION_ROLE ( 'classification_officer' ) ;
#105 = PERSON_AND_ORGANIZATION ( #203, #204 ) ;
#106 = EDGE_LOOP ( 'NONE', ( #16, #54, #74, #172 ) ) ;
#107 = FACE_OUTER_BOUND ( 'NONE', #192, .T. ) ;
#108 = CC_DESIGN_DATE_AND_TIME_ASSIGNMENT ( #217, #26, ( #144 ) ) ;
#109 = SHAPE_DEFINITION_REPRESENTATION ( #97, #175 ) ;
#110 = AXIS2_PLACEMENT_3D ( 'NONE', #85, #89, #103 ) ;
#111 = DIRECTION ( 'NONE',  ( -1.000000000000000000, -1.387778780781445429E-16, 0.0000000000000000000 ) ) ;
#112 = UNCERTAINTY_MEASURE_WITH_UNIT (LENGTH_MEASURE( 1.000000000000000082E-05 ), #194, 'distance_accuracy_value', 'NONE');
#113 = DIRECTION ( 'NONE',  ( 0.0000000000000000000, 1.000000000000000000, 0.0000000000000000000 ) ) ;
#114 = PERSON_AND_ORGANIZATION ( #203, #204 ) ;
#115 = PLANE ( 'NONE',  #93 ) ;
#116 = CARTESIAN_POINT ( 'NONE',  ( 12.50000000000000533, 12.49999999999999822, -3.000000000000000000 ) ) ;
#117 = EDGE_LOOP ( 'NONE', ( #24, #45, #73, #210 ) ) ;
#118 = PLANE ( 'NONE',  #62 ) ;
#119 = CC_DESIGN_PERSON_AND_ORGANIZATION_ASSIGNMENT ( #114, #104, ( #56 ) ) ;
#120 = PRODUCT_DEFINITION_FORMATION_WITH_SPECIFIED_SOURCE ( 'ANY', '', #140, .NOT_KNOWN. ) ;
#121 =( NAMED_UNIT ( * ) SI_UNIT ( $, .STERADIAN. ) SOLID_ANGLE_UNIT ( ) );
#122 = APPROVAL_ROLE ( '' ) ;
#123 = LINE ( 'NONE', #189, #2 ) ;
#124 = EDGE_CURVE ( 'NONE', #13, #222, #76, .T. ) ;
#125 = ORIENTED_EDGE ( 'NONE', *, *, #124, .F. ) ;
#126 = VECTOR ( 'NONE', #70, 1000.000000000000000 ) ;
#127 = LINE ( 'NONE', #208, #237 ) ;
#128 = CC_DESIGN_DATE_AND_TIME_ASSIGNMENT ( #1, #155, ( #56 ) ) ;
#129 = EDGE_CURVE ( 'NONE', #222, #66, #32, .T. ) ;
#130 = DIRECTION ( 'NONE',  ( 0.0000000000000000000, 0.0000000000000000000, 1.000000000000000000 ) ) ;
#131 = PERSON_AND_ORGANIZATION ( #203, #204 ) ;
#132 = ADVANCED_FACE ( 'NONE', ( #202 ), #115, .F. ) ;
#133 = DIRECTION ( 'NONE',  ( -1.387778780781445429E-16, 1.000000000000000000, 0.0000000000000000000 ) ) ;
#134 = PERSON_AND_ORGANIZATION ( #203, #204 ) ;
#135 = LINE ( 'NONE', #20, #226 ) ;
#136 = DIRECTION ( 'NONE',  ( 1.000000000000000000, 0.0000000000000000000, -0.0000000000000000000 ) ) ;
#137 = APPLICATION_PROTOCOL_DEFINITION ( 'international standard', 'config_control_design', 1994, #213 ) ;
#138 = APPROVAL_DATE_TIME ( #224, #41 ) ;
#139 = APPROVAL_ROLE ( '' ) ;
#140 = PRODUCT ( 'Web Model 37128MX_15749', 'Web Model 37128MX_15749', '', ( #71 ) ) ;
#141 = AXIS2_PLACEMENT_3D ( 'NONE', #171, #65, #193 ) ;
#142 = APPROVAL_PERSON_ORGANIZATION ( #209, #41, #122 ) ;
#143 = ORIENTED_EDGE ( 'NONE', *, *, #57, .F. ) ;
#144 = PRODUCT_DEFINITION ( 'UNKNOWN', '', #120, #102 ) ;
#145 = CC_DESIGN_PERSON_AND_ORGANIZATION_ASSIGNMENT ( #134, #216, ( #120 ) ) ;
#146 = DATE_AND_TIME ( #35, #58 ) ;
#147 = LINE ( 'NONE', #159, #126 ) ;
#148 = VERTEX_POINT ( 'NONE', #43 ) ;
#149 = VECTOR ( 'NONE', #52, 1000.000000000000000 ) ;
#150 = DIRECTION ( 'NONE',  ( 0.0000000000000000000, -0.0000000000000000000, 1.000000000000000000 ) ) ;
#151 = PLANE ( 'NONE',  #141 ) ;
#152 = ORIENTED_EDGE ( 'NONE', *, *, #191, .T. ) ;
#153 = ADVANCED_FACE ( 'NONE', ( #36 ), #19, .F. ) ;
#154 = PERSON_AND_ORGANIZATION_ROLE ( 'creator' ) ;
#155 = DATE_TIME_ROLE ( 'classification_date' ) ;
#156 = EDGE_LOOP ( 'NONE', ( #12, #18, #218, #205 ) ) ;
#157 = APPROVAL ( #234, 'UNSPECIFIED' ) ;
#158 = APPROVAL_STATUS ( 'not_yet_approved' ) ;
#159 = CARTESIAN_POINT ( 'NONE',  ( 12.50000000000000533, -12.50000000000000178, 3.000000000000000000 ) ) ;
#160 = PERSON_AND_ORGANIZATION_ROLE ( 'design_owner' ) ;
#161 = APPROVAL_DATE_TIME ( #236, #157 ) ;
#162 = VECTOR ( 'NONE', #6, 1000.000000000000000 ) ;
#163 = ORIENTED_EDGE ( 'NONE', *, *, #184, .T. ) ;
#164 = AXIS2_PLACEMENT_3D ( 'NONE', #211, #150, #207 ) ;
#165 = LINE ( 'NONE', #51, #37 ) ;
#166 = VERTEX_POINT ( 'NONE', #228 ) ;
#167 = CC_DESIGN_APPROVAL ( #157, ( #56 ) ) ;
#168 = APPROVAL_PERSON_ORGANIZATION ( #231, #157, #139 ) ;
#169 = FACE_OUTER_BOUND ( 'NONE', #15, .T. ) ;
#170 = CARTESIAN_POINT ( 'NONE',  ( 12.50000000000000533, -12.50000000000000178, 3.000000000000000000 ) ) ;
#171 = CARTESIAN_POINT ( 'NONE',  ( 12.50000000000000533, 12.49999999999999822, 3.000000000000000000 ) ) ;
#172 = ORIENTED_EDGE ( 'NONE', *, *, #21, .F. ) ;
#173 = PERSON_AND_ORGANIZATION_ROLE ( 'design_supplier' ) ;
#174 = DIRECTION ( 'NONE',  ( -0.0000000000000000000, -0.0000000000000000000, -1.000000000000000000 ) ) ;
#175 = ADVANCED_BREP_SHAPE_REPRESENTATION ( 'Web Model 37128MX_15749', ( #223, #110 ), #91 ) ;
#176 = PERSON_AND_ORGANIZATION ( #203, #204 ) ;
#177 = APPLICATION_PROTOCOL_DEFINITION ( 'international standard', 'config_control_design', 1994, #83 ) ;
#178 = EDGE_CURVE ( 'NONE', #201, #187, #9, .T. ) ;
#179 = DIRECTION ( 'NONE',  ( 1.000000000000000000, 1.387778780781445676E-16, -0.0000000000000000000 ) ) ;
#180 = AXIS2_PLACEMENT_3D ( 'NONE', #8, #96, #5 ) ;
#181 = ORIENTED_EDGE ( 'NONE', *, *, #124, .T. ) ;
#182 = AXIS2_PLACEMENT_3D ( 'NONE', #229, #64, #130 ) ;
#183 = CC_DESIGN_SECURITY_CLASSIFICATION ( #56, ( #120 ) ) ;
#184 = EDGE_CURVE ( 'NONE', #166, #13, #147, .T. ) ;
#185 = COORDINATED_UNIVERSAL_TIME_OFFSET ( 5, 0, .BEHIND. ) ;
#186 = LOCAL_TIME ( 11, 41, 9.000000000000000000, #82 ) ;
#187 = VERTEX_POINT ( 'NONE', #116 ) ;
#188 = LOCAL_TIME ( 11, 41, 9.000000000000000000, #88 ) ;
#189 = CARTESIAN_POINT ( 'NONE',  ( 12.50000000000000533, -12.50000000000000178, 3.000000000000000000 ) ) ;
#190 = EDGE_CURVE ( 'NONE', #206, #148, #53, .T. ) ;
#191 = EDGE_CURVE ( 'NONE', #66, #166, #72, .T. ) ;
#192 = EDGE_LOOP ( 'NONE', ( #152, #163, #181, #92 ) ) ;
#193 = DIRECTION ( 'NONE',  ( 1.000000000000000000, 1.387778780781445429E-16, 0.0000000000000000000 ) ) ;
#194 =( LENGTH_UNIT ( ) NAMED_UNIT ( * ) SI_UNIT ( .MILLI., .METRE. ) );
#195 = VECTOR ( 'NONE', #78, 1000.000000000000000 ) ;
#196 = EDGE_CURVE ( 'NONE', #166, #148, #165, .T. ) ;
#197 = CARTESIAN_POINT ( 'NONE',  ( 0.0000000000000000000, 0.0000000000000000000, 3.000000000000000000 ) ) ;
#198 = CARTESIAN_POINT ( 'NONE',  ( 12.50000000000000533, -12.50000000000000178, 3.000000000000000000 ) ) ;
#199 = LOCAL_TIME ( 11, 41, 9.000000000000000000, #14 ) ;
#200 = CC_DESIGN_PERSON_AND_ORGANIZATION_ASSIGNMENT ( #30, #160, ( #140 ) ) ;
#201 = VERTEX_POINT ( 'NONE', #101 ) ;
#202 = FACE_OUTER_BOUND ( 'NONE', #117, .T. ) ;
#203 = PERSON ( 'UNSPECIFIED', 'UNSPECIFIED', 'UNSPECIFIED', ('UNSPECIFIED'), ('UNSPECIFIED'), ('UNSPECIFIED') ) ;
#204 = ORGANIZATION ( 'UNSPECIFIED', 'UNSPECIFIED', '' ) ;
#205 = ORIENTED_EDGE ( 'NONE', *, *, #40, .T. ) ;
#206 = VERTEX_POINT ( 'NONE', #25 ) ;
#207 = DIRECTION ( 'NONE',  ( 1.000000000000000000, 0.0000000000000000000, -0.0000000000000000000 ) ) ;
#208 = CARTESIAN_POINT ( 'NONE',  ( 12.50000000000000533, 12.49999999999999822, 3.000000000000000000 ) ) ;
#209 = PERSON_AND_ORGANIZATION ( #203, #204 ) ;
#210 = ORIENTED_EDGE ( 'NONE', *, *, #196, .T. ) ;
#211 = CARTESIAN_POINT ( 'NONE',  ( 0.0000000000000000000, 0.0000000000000000000, -3.000000000000000000 ) ) ;
#212 = CARTESIAN_POINT ( 'NONE',  ( -12.49999999999999467, -12.50000000000000533, -3.000000000000000000 ) ) ;
#213 = APPLICATION_CONTEXT ( 'configuration controlled 3d designs of mechanical parts and assemblies' ) ;
#214 = LINE ( 'NONE', #219, #60 ) ;
#215 = APPROVAL_ROLE ( '' ) ;
#216 = PERSON_AND_ORGANIZATION_ROLE ( 'creator' ) ;
#217 = DATE_AND_TIME ( #11, #186 ) ;
#218 = ORIENTED_EDGE ( 'NONE', *, *, #191, .F. ) ;
#219 = CARTESIAN_POINT ( 'NONE',  ( 12.50000000000000533, -12.50000000000000178, -3.000000000000000000 ) ) ;
#220 = CC_DESIGN_APPROVAL ( #233, ( #120 ) ) ;
#221 = APPROVAL_PERSON_ORGANIZATION ( #105, #233, #215 ) ;
#222 = VERTEX_POINT ( 'NONE', #67 ) ;
#223 = MANIFOLD_SOLID_BREP ( 'Boss-Extrude1', #81 ) ;
#224 = DATE_AND_TIME ( #235, #188 ) ;
#225 = ORIENTED_EDGE ( 'NONE', *, *, #57, .T. ) ;
#226 = VECTOR ( 'NONE', #227, 1000.000000000000000 ) ;
#227 = DIRECTION ( 'NONE',  ( -1.000000000000000000, -1.387778780781445676E-16, 0.0000000000000000000 ) ) ;
#228 = CARTESIAN_POINT ( 'NONE',  ( -12.49999999999999467, -12.50000000000000533, 3.000000000000000000 ) ) ;
#229 = CARTESIAN_POINT ( 'NONE',  ( 12.50000000000000533, -12.50000000000000178, 3.000000000000000000 ) ) ;
#230 = ADVANCED_FACE ( 'NONE', ( #107 ), #118, .T. ) ;
#231 = PERSON_AND_ORGANIZATION ( #203, #204 ) ;
#232 = FACE_OUTER_BOUND ( 'NONE', #106, .T. ) ;
#233 = APPROVAL ( #48, 'UNSPECIFIED' ) ;
#234 = APPROVAL_STATUS ( 'not_yet_approved' ) ;
#235 = CALENDAR_DATE ( 2020, 19, 10 ) ;
#236 = DATE_AND_TIME ( #44, #199 ) ;
#237 = VECTOR ( 'NONE', #46, 1000.000000000000000 ) ;
ENDSEC;
END-ISO-10303-21;
