ISO-10303-21;
HEADER;
FILE_DESCRIPTION (( 'STEP AP203' ),
    '1' );
FILE_NAME ('Web Model 68531.STEP',
    '2017-02-01T13:29:04',
    ( '' ),
    ( '' ),
    'SwSTEP 2.0',
    'SolidWorks 2016',
    '' );
FILE_SCHEMA (( 'CONFIG_CONTROL_DESIGN' ));
ENDSEC;

DATA;
#1 = ORIENTED_EDGE ( 'NONE', *, *, #107, .T. ) ;
#2 = ADVANCED_FACE ( 'NONE', ( #82 ), #111, .F. ) ;
#3 = CARTESIAN_POINT ( 'NONE',  ( 0.0000000000000000000, 2.000000000000000000, 0.0000000000000000000 ) ) ;
#4 = ORIENTED_EDGE ( 'NONE', *, *, #161, .T. ) ;
#5 = SECURITY_CLASSIFICATION ( '', '', #86 ) ;
#6 = DIRECTION ( 'NONE',  ( 0.0000000000000000000, -0.0000000000000000000, 1.000000000000000000 ) ) ;
#7 = APPROVAL_DATE_TIME ( #146, #142 ) ;
#8 = DATE_TIME_ROLE ( 'classification_date' ) ;
#9 = CALENDAR_DATE ( 2017, 1, 2 ) ;
#10 = LOCAL_TIME ( 8, 29, 4.000000000000000000, #43 ) ;
#11 = PERSON_AND_ORGANIZATION ( #121, #13 ) ;
#12 = CC_DESIGN_PERSON_AND_ORGANIZATION_ASSIGNMENT ( #11, #45, ( #5 ) ) ;
#13 = ORGANIZATION ( 'UNSPECIFIED', 'UNSPECIFIED', '' ) ;
#14 = CALENDAR_DATE ( 2017, 1, 2 ) ;
#15 = AXIS2_PLACEMENT_3D ( 'NONE', #56, #167, #95 ) ;
#16 = CARTESIAN_POINT ( 'NONE',  ( 0.0000000000000000000, 0.0000000000000000000, 0.0000000000000000000 ) ) ;
#17 =( NAMED_UNIT ( * ) SI_UNIT ( $, .STERADIAN. ) SOLID_ANGLE_UNIT ( ) );
#18 = APPROVAL_ROLE ( '' ) ;
#19 = ORIENTED_EDGE ( 'NONE', *, *, #173, .T. ) ;
#20 = LOCAL_TIME ( 8, 29, 4.000000000000000000, #92 ) ;
#21 = CC_DESIGN_DATE_AND_TIME_ASSIGNMENT ( #39, #8, ( #5 ) ) ;
#22 = PRODUCT_DEFINITION_FORMATION_WITH_SPECIFIED_SOURCE ( 'ANY', '', #102, .NOT_KNOWN. ) ;
#23 = CYLINDRICAL_SURFACE ( 'NONE', #40, 25.00000000000000000 ) ;
#24 = COORDINATED_UNIVERSAL_TIME_OFFSET ( 5, 0, .BEHIND. ) ;
#25 = VERTEX_POINT ( 'NONE', #137 ) ;
#26 = ORIENTED_EDGE ( 'NONE', *, *, #48, .T. ) ;
#27 = APPROVAL ( #113, 'UNSPECIFIED' ) ;
#28 = ADVANCED_FACE ( 'NONE', ( #141 ), #90, .T. ) ;
#29 = DIRECTION ( 'NONE',  ( -0.0000000000000000000, -1.000000000000000000, -0.0000000000000000000 ) ) ;
#30 = DIRECTION ( 'NONE',  ( 0.0000000000000000000, 1.000000000000000000, 0.0000000000000000000 ) ) ;
#31 = DIRECTION ( 'NONE',  ( 0.0000000000000000000, 1.000000000000000000, 0.0000000000000000000 ) ) ;
#32 = DIRECTION ( 'NONE',  ( 0.0000000000000000000, 0.0000000000000000000, -1.000000000000000000 ) ) ;
#33 = ORIENTED_EDGE ( 'NONE', *, *, #144, .T. ) ;
#34 = PERSON_AND_ORGANIZATION_ROLE ( 'creator' ) ;
#35 = AXIS2_PLACEMENT_3D ( 'NONE', #81, #31, #125 ) ;
#36 = ORIENTED_EDGE ( 'NONE', *, *, #98, .T. ) ;
#37 = AXIS2_PLACEMENT_3D ( 'NONE', #16, #83, #6 ) ;
#38 = VERTEX_POINT ( 'NONE', #94 ) ;
#39 = DATE_AND_TIME ( #77, #87 ) ;
#40 = AXIS2_PLACEMENT_3D ( 'NONE', #3, #69, #72 ) ;
#41 = DIRECTION ( 'NONE',  ( 0.0000000000000000000, -0.0000000000000000000, 1.000000000000000000 ) ) ;
#42 = CARTESIAN_POINT ( 'NONE',  ( 3.061616997868383000E-015, 2.000000000000000000, 25.00000000000000000 ) ) ;
#43 = COORDINATED_UNIVERSAL_TIME_OFFSET ( 5, 0, .BEHIND. ) ;
#44 = APPROVAL_STATUS ( 'not_yet_approved' ) ;
#45 = PERSON_AND_ORGANIZATION_ROLE ( 'classification_officer' ) ;
#46 = MECHANICAL_CONTEXT ( 'NONE', #155, 'mechanical' ) ;
#47 = PERSON_AND_ORGANIZATION ( #121, #13 ) ;
#48 = EDGE_CURVE ( 'NONE', #112, #38, #133, .T. ) ;
#49 = CC_DESIGN_SECURITY_CLASSIFICATION ( #5, ( #22 ) ) ;
#50 = LOCAL_TIME ( 8, 29, 4.000000000000000000, #148 ) ;
#51 = AXIS2_PLACEMENT_3D ( 'NONE', #55, #128, #41 ) ;
#52 = EDGE_LOOP ( 'NONE', ( #174, #101, #4, #19 ) ) ;
#53 = LINE ( 'NONE', #42, #160 ) ;
#54 = DIRECTION ( 'NONE',  ( -0.0000000000000000000, -1.000000000000000000, -0.0000000000000000000 ) ) ;
#55 = CARTESIAN_POINT ( 'NONE',  ( 0.0000000000000000000, 2.000000000000000000, 0.0000000000000000000 ) ) ;
#56 = CARTESIAN_POINT ( 'NONE',  ( 0.0000000000000000000, 2.000000000000000000, 0.0000000000000000000 ) ) ;
#57 =( NAMED_UNIT ( * ) PLANE_ANGLE_UNIT ( ) SI_UNIT ( $, .RADIAN. ) );
#58 = APPLICATION_CONTEXT ( 'configuration controlled 3d designs of mechanical parts and assemblies' ) ;
#59 = CIRCLE ( 'NONE', #60, 25.00000000000000000 ) ;
#60 = AXIS2_PLACEMENT_3D ( 'NONE', #110, #126, #124 ) ;
#61 = PERSON_AND_ORGANIZATION ( #121, #13 ) ;
#62 = ORIENTED_EDGE ( 'NONE', *, *, #161, .F. ) ;
#63 = CC_DESIGN_APPROVAL ( #27, ( #164 ) ) ;
#64 = CIRCLE ( 'NONE', #35, 25.00000000000000000 ) ;
#65 = AXIS2_PLACEMENT_3D ( 'NONE', #71, #30, #67 ) ;
#66 = PERSON_AND_ORGANIZATION ( #121, #13 ) ;
#67 = DIRECTION ( 'NONE',  ( 0.0000000000000000000, 0.0000000000000000000, 1.000000000000000000 ) ) ;
#68 = LINE ( 'NONE', #138, #105 ) ;
#69 = DIRECTION ( 'NONE',  ( -0.0000000000000000000, -1.000000000000000000, -0.0000000000000000000 ) ) ;
#70 =( LENGTH_UNIT ( ) NAMED_UNIT ( * ) SI_UNIT ( .MILLI., .METRE. ) );
#71 = CARTESIAN_POINT ( 'NONE',  ( 0.0000000000000000000, 0.0000000000000000000, 0.0000000000000000000 ) ) ;
#72 = DIRECTION ( 'NONE',  ( 0.0000000000000000000, 0.0000000000000000000, -1.000000000000000000 ) ) ;
#73 = ORIENTED_EDGE ( 'NONE', *, *, #173, .F. ) ;
#74 = PERSON_AND_ORGANIZATION_ROLE ( 'design_owner' ) ;
#75 = APPLICATION_PROTOCOL_DEFINITION ( 'international standard', 'config_control_design', 1994, #58 ) ;
#76 = CC_DESIGN_PERSON_AND_ORGANIZATION_ASSIGNMENT ( #47, #115, ( #22 ) ) ;
#77 = CALENDAR_DATE ( 2017, 1, 2 ) ;
#78 = PERSON_AND_ORGANIZATION ( #121, #13 ) ;
#79 = PERSON_AND_ORGANIZATION ( #121, #13 ) ;
#80 = AXIS2_PLACEMENT_3D ( 'NONE', #139, #129, #131 ) ;
#81 = CARTESIAN_POINT ( 'NONE',  ( 0.0000000000000000000, 2.000000000000000000, 0.0000000000000000000 ) ) ;
#82 = FACE_OUTER_BOUND ( 'NONE', #122, .T. ) ;
#83 = DIRECTION ( 'NONE',  ( 0.0000000000000000000, 1.000000000000000000, 0.0000000000000000000 ) ) ;
#84 = PERSON_AND_ORGANIZATION_ROLE ( 'design_supplier' ) ;
#85 =( GEOMETRIC_REPRESENTATION_CONTEXT ( 3 ) GLOBAL_UNCERTAINTY_ASSIGNED_CONTEXT ( ( #96 ) ) GLOBAL_UNIT_ASSIGNED_CONTEXT ( ( #70, #57, #17 ) ) REPRESENTATION_CONTEXT ( 'NONE', 'WORKASPACE' ) );
#86 = SECURITY_CLASSIFICATION_LEVEL ( 'unclassified' ) ;
#87 = LOCAL_TIME ( 8, 29, 4.000000000000000000, #120 ) ;
#88 = APPROVAL_STATUS ( 'not_yet_approved' ) ;
#89 = CLOSED_SHELL ( 'NONE', ( #28, #91, #153, #2 ) ) ;
#90 = CYLINDRICAL_SURFACE ( 'NONE', #117, 25.00000000000000000 ) ;
#91 = ADVANCED_FACE ( 'NONE', ( #143 ), #23, .T. ) ;
#92 = COORDINATED_UNIVERSAL_TIME_OFFSET ( 5, 0, .BEHIND. ) ;
#93 = CALENDAR_DATE ( 2017, 1, 2 ) ;
#94 = CARTESIAN_POINT ( 'NONE',  ( 0.0000000000000000000, 0.0000000000000000000, -25.00000000000000000 ) ) ;
#95 = DIRECTION ( 'NONE',  ( 0.0000000000000000000, 0.0000000000000000000, 1.000000000000000000 ) ) ;
#96 = UNCERTAINTY_MEASURE_WITH_UNIT (LENGTH_MEASURE( 1.000000000000000100E-005 ), #70, 'distance_accuracy_value', 'NONE');
#97 = CARTESIAN_POINT ( 'NONE',  ( 0.0000000000000000000, 2.000000000000000000, 0.0000000000000000000 ) ) ;
#98 = EDGE_CURVE ( 'NONE', #175, #25, #106, .T. ) ;
#99 = DIRECTION ( 'NONE',  ( -0.0000000000000000000, -1.000000000000000000, -0.0000000000000000000 ) ) ;
#100 = CC_DESIGN_PERSON_AND_ORGANIZATION_ASSIGNMENT ( #78, #34, ( #164 ) ) ;
#101 = ORIENTED_EDGE ( 'NONE', *, *, #107, .F. ) ;
#102 = PRODUCT ( 'Web Model 68531', 'Web Model 68531', '', ( #46 ) ) ;
#103 = APPROVAL ( #44, 'UNSPECIFIED' ) ;
#104 = EDGE_LOOP ( 'NONE', ( #170, #33, #26, #62 ) ) ;
#105 = VECTOR ( 'NONE', #99, 1000.000000000000000 ) ;
#106 = CIRCLE ( 'NONE', #15, 25.00000000000000000 ) ;
#107 = EDGE_CURVE ( 'NONE', #25, #175, #64, .T. ) ;
#108 = CARTESIAN_POINT ( 'NONE',  ( 3.061616997868383000E-015, 0.0000000000000000000, 25.00000000000000000 ) ) ;
#109 = DATE_AND_TIME ( #9, #10 ) ;
#110 = CARTESIAN_POINT ( 'NONE',  ( 0.0000000000000000000, 0.0000000000000000000, 0.0000000000000000000 ) ) ;
#111 = PLANE ( 'NONE',  #37 ) ;
#112 = VERTEX_POINT ( 'NONE', #108 ) ;
#113 = APPROVAL_STATUS ( 'not_yet_approved' ) ;
#114 = APPROVAL_ROLE ( '' ) ;
#115 = PERSON_AND_ORGANIZATION_ROLE ( 'creator' ) ;
#116 = APPROVAL_PERSON_ORGANIZATION ( #159, #103, #18 ) ;
#117 = AXIS2_PLACEMENT_3D ( 'NONE', #97, #54, #32 ) ;
#118 = DATE_AND_TIME ( #163, #20 ) ;
#119 = CC_DESIGN_APPROVAL ( #103, ( #22 ) ) ;
#120 = COORDINATED_UNIVERSAL_TIME_OFFSET ( 5, 0, .BEHIND. ) ;
#121 = PERSON ( 'UNSPECIFIED', 'UNSPECIFIED', 'UNSPECIFIED', ('UNSPECIFIED'), ('UNSPECIFIED'), ('UNSPECIFIED') ) ;
#122 = EDGE_LOOP ( 'NONE', ( #73, #135 ) ) ;
#123 = PERSON_AND_ORGANIZATION ( #121, #13 ) ;
#124 = DIRECTION ( 'NONE',  ( 0.0000000000000000000, 0.0000000000000000000, 1.000000000000000000 ) ) ;
#125 = DIRECTION ( 'NONE',  ( 0.0000000000000000000, 0.0000000000000000000, 1.000000000000000000 ) ) ;
#126 = DIRECTION ( 'NONE',  ( 0.0000000000000000000, 1.000000000000000000, 0.0000000000000000000 ) ) ;
#127 = APPROVAL_DATE_TIME ( #118, #27 ) ;
#128 = DIRECTION ( 'NONE',  ( 0.0000000000000000000, 1.000000000000000000, 0.0000000000000000000 ) ) ;
#129 = DIRECTION ( 'NONE',  ( 0.0000000000000000000, 0.0000000000000000000, 1.000000000000000000 ) ) ;
#130 = ADVANCED_BREP_SHAPE_REPRESENTATION ( 'Web Model 68531', ( #165, #80 ), #85 ) ;
#131 = DIRECTION ( 'NONE',  ( 1.000000000000000000, 0.0000000000000000000, 0.0000000000000000000 ) ) ;
#132 = APPROVAL_PERSON_ORGANIZATION ( #61, #27, #169 ) ;
#133 = CIRCLE ( 'NONE', #65, 25.00000000000000000 ) ;
#134 = LOCAL_TIME ( 8, 29, 4.000000000000000000, #24 ) ;
#135 = ORIENTED_EDGE ( 'NONE', *, *, #48, .F. ) ;
#136 = CC_DESIGN_DATE_AND_TIME_ASSIGNMENT ( #109, #172, ( #164 ) ) ;
#137 = CARTESIAN_POINT ( 'NONE',  ( 0.0000000000000000000, 2.000000000000000000, -25.00000000000000000 ) ) ;
#138 = CARTESIAN_POINT ( 'NONE',  ( 0.0000000000000000000, 2.000000000000000000, -25.00000000000000000 ) ) ;
#139 = CARTESIAN_POINT ( 'NONE',  ( 0.0000000000000000000, 0.0000000000000000000, 0.0000000000000000000 ) ) ;
#140 = DESIGN_CONTEXT ( 'detailed design', #58, 'design' ) ;
#141 = FACE_OUTER_BOUND ( 'NONE', #104, .T. ) ;
#142 = APPROVAL ( #88, 'UNSPECIFIED' ) ;
#143 = FACE_OUTER_BOUND ( 'NONE', #52, .T. ) ;
#144 = EDGE_CURVE ( 'NONE', #175, #112, #53, .T. ) ;
#145 = FACE_OUTER_BOUND ( 'NONE', #149, .T. ) ;
#146 = DATE_AND_TIME ( #93, #134 ) ;
#147 = PRODUCT_DEFINITION_SHAPE ( 'NONE', 'NONE',  #164 ) ;
#148 = COORDINATED_UNIVERSAL_TIME_OFFSET ( 5, 0, .BEHIND. ) ;
#149 = EDGE_LOOP ( 'NONE', ( #1, #36 ) ) ;
#150 = CC_DESIGN_APPROVAL ( #142, ( #5 ) ) ;
#151 = APPROVAL_DATE_TIME ( #162, #103 ) ;
#152 = APPROVAL_PERSON_ORGANIZATION ( #79, #142, #114 ) ;
#153 = ADVANCED_FACE ( 'NONE', ( #145 ), #168, .T. ) ;
#154 = CARTESIAN_POINT ( 'NONE',  ( 3.061616997868383000E-015, 2.000000000000000000, 25.00000000000000000 ) ) ;
#155 = APPLICATION_CONTEXT ( 'configuration controlled 3d designs of mechanical parts and assemblies' ) ;
#156 = APPLICATION_PROTOCOL_DEFINITION ( 'international standard', 'config_control_design', 1994, #155 ) ;
#157 = PRODUCT_RELATED_PRODUCT_CATEGORY ( 'detail', '', ( #102 ) ) ;
#158 = CC_DESIGN_PERSON_AND_ORGANIZATION_ASSIGNMENT ( #123, #84, ( #22 ) ) ;
#159 = PERSON_AND_ORGANIZATION ( #121, #13 ) ;
#160 = VECTOR ( 'NONE', #29, 1000.000000000000000 ) ;
#161 = EDGE_CURVE ( 'NONE', #25, #38, #68, .T. ) ;
#162 = DATE_AND_TIME ( #14, #50 ) ;
#163 = CALENDAR_DATE ( 2017, 1, 2 ) ;
#164 = PRODUCT_DEFINITION ( 'UNKNOWN', '', #22, #140 ) ;
#165 = MANIFOLD_SOLID_BREP ( 'Extrude1', #89 ) ;
#166 = SHAPE_DEFINITION_REPRESENTATION ( #147, #130 ) ;
#167 = DIRECTION ( 'NONE',  ( 0.0000000000000000000, 1.000000000000000000, 0.0000000000000000000 ) ) ;
#168 = PLANE ( 'NONE',  #51 ) ;
#169 = APPROVAL_ROLE ( '' ) ;
#170 = ORIENTED_EDGE ( 'NONE', *, *, #98, .F. ) ;
#171 = CC_DESIGN_PERSON_AND_ORGANIZATION_ASSIGNMENT ( #66, #74, ( #102 ) ) ;
#172 = DATE_TIME_ROLE ( 'creation_date' ) ;
#173 = EDGE_CURVE ( 'NONE', #38, #112, #59, .T. ) ;
#174 = ORIENTED_EDGE ( 'NONE', *, *, #144, .F. ) ;
#175 = VERTEX_POINT ( 'NONE', #154 ) ;
ENDSEC;
END-ISO-10303-21;
