ISO-10303-21;
HEADER;
FILE_DESCRIPTION (( 'STEP AP203' ),
    '1' );
FILE_NAME ('Web Model 43847_43851.step',
    '2018-03-12T20:48:41',
    ( '' ),
    ( '' ),
    'SwSTEP 2.0',
    'SolidWorks 2016',
    '' );
FILE_SCHEMA (( 'CONFIG_CONTROL_DESIGN' ));
ENDSEC;

DATA;
#1 = CARTESIAN_POINT ( 'NONE',  ( -3.000000000000000000, -6.350000000000000500, 6.350000000000002300 ) ) ;
#2 = CC_DESIGN_PERSON_AND_ORGANIZATION_ASSIGNMENT ( #231, #45, ( #69 ) ) ;
#3 = FACE_OUTER_BOUND ( 'NONE', #15, .T. ) ;
#4 = PERSON_AND_ORGANIZATION_ROLE ( 'design_owner' ) ;
#5 = ORIENTED_EDGE ( 'NONE', *, *, #124, .T. ) ;
#6 = DIRECTION ( 'NONE',  ( -1.000000000000000000, -0.0000000000000000000, -0.0000000000000000000 ) ) ;
#7 = APPLICATION_CONTEXT ( 'configuration controlled 3d designs of mechanical parts and assemblies' ) ;
#8 = CARTESIAN_POINT ( 'NONE',  ( -3.000000000000000000, 6.349999999999998800, -6.349999999999999600 ) ) ;
#9 = VECTOR ( 'NONE', #177, 1000.000000000000000 ) ;
#10 = VERTEX_POINT ( 'NONE', #118 ) ;
#11 = CARTESIAN_POINT ( 'NONE',  ( 3.000000000000000000, -6.350000000000000500, 6.350000000000002300 ) ) ;
#12 = DIRECTION ( 'NONE',  ( 0.0000000000000000000, -0.0000000000000000000, -1.000000000000000000 ) ) ;
#13 = LINE ( 'NONE', #192, #61 ) ;
#14 = CARTESIAN_POINT ( 'NONE',  ( -3.000000000000000000, 6.349999999999998800, 6.349999999999999600 ) ) ;
#15 = EDGE_LOOP ( 'NONE', ( #47, #165, #41, #181 ) ) ;
#16 = CC_DESIGN_DATE_AND_TIME_ASSIGNMENT ( #230, #166, ( #201 ) ) ;
#17 = SHAPE_DEFINITION_REPRESENTATION ( #81, #172 ) ;
#18 = CC_DESIGN_APPROVAL ( #80, ( #201 ) ) ;
#19 = PLANE ( 'NONE',  #232 ) ;
#20 = CALENDAR_DATE ( 2018, 12, 3 ) ;
#21 = ORIENTED_EDGE ( 'NONE', *, *, #119, .F. ) ;
#22 = UNCERTAINTY_MEASURE_WITH_UNIT (LENGTH_MEASURE( 1.000000000000000100E-005 ), #50, 'distance_accuracy_value', 'NONE');
#23 = MECHANICAL_CONTEXT ( 'NONE', #7, 'mechanical' ) ;
#24 = AXIS2_PLACEMENT_3D ( 'NONE', #195, #70, #86 ) ;
#25 = PLANE ( 'NONE',  #197 ) ;
#26 = DATE_AND_TIME ( #205, #168 ) ;
#27 = LINE ( 'NONE', #100, #68 ) ;
#28 = ORIENTED_EDGE ( 'NONE', *, *, #75, .T. ) ;
#29 = CC_DESIGN_SECURITY_CLASSIFICATION ( #201, ( #114 ) ) ;
#30 = DIRECTION ( 'NONE',  ( 1.000000000000000000, 0.0000000000000000000, 0.0000000000000000000 ) ) ;
#31 = PERSON_AND_ORGANIZATION_ROLE ( 'classification_officer' ) ;
#32 = FACE_OUTER_BOUND ( 'NONE', #59, .T. ) ;
#33 = PERSON_AND_ORGANIZATION ( #76, #112 ) ;
#34 = EDGE_LOOP ( 'NONE', ( #105, #35, #28, #206 ) ) ;
#35 = ORIENTED_EDGE ( 'NONE', *, *, #38, .T. ) ;
#36 = DATE_AND_TIME ( #137, #193 ) ;
#37 = MANIFOLD_SOLID_BREP ( 'Boss-Extrude1', #73 ) ;
#38 = EDGE_CURVE ( 'NONE', #125, #139, #186, .T. ) ;
#39 = APPROVAL_DATE_TIME ( #131, #80 ) ;
#40 = FACE_OUTER_BOUND ( 'NONE', #225, .T. ) ;
#41 = ORIENTED_EDGE ( 'NONE', *, *, #154, .F. ) ;
#42 = CARTESIAN_POINT ( 'NONE',  ( 3.000000000000000000, 6.349999999999998800, -6.349999999999999600 ) ) ;
#43 = ADVANCED_FACE ( 'NONE', ( #228 ), #19, .F. ) ;
#44 = APPROVAL_DATE_TIME ( #55, #221 ) ;
#45 = PERSON_AND_ORGANIZATION_ROLE ( 'creator' ) ;
#46 = EDGE_LOOP ( 'NONE', ( #5, #79, #236, #153 ) ) ;
#47 = ORIENTED_EDGE ( 'NONE', *, *, #111, .F. ) ;
#48 = EDGE_CURVE ( 'NONE', #139, #148, #179, .T. ) ;
#49 = CARTESIAN_POINT ( 'NONE',  ( 3.000000000000000000, -6.350000000000000500, 6.350000000000002300 ) ) ;
#50 =( LENGTH_UNIT ( ) NAMED_UNIT ( * ) SI_UNIT ( .MILLI., .METRE. ) );
#51 = DIRECTION ( 'NONE',  ( 0.0000000000000000000, -1.000000000000000000, 0.0000000000000000000 ) ) ;
#52 = LINE ( 'NONE', #1, #9 ) ;
#53 = CARTESIAN_POINT ( 'NONE',  ( 3.000000000000000000, 0.0000000000000000000, 0.0000000000000000000 ) ) ;
#54 = CARTESIAN_POINT ( 'NONE',  ( 3.000000000000000000, 6.349999999999998800, 6.349999999999999600 ) ) ;
#55 = DATE_AND_TIME ( #151, #93 ) ;
#56 = FACE_OUTER_BOUND ( 'NONE', #34, .T. ) ;
#57 = PRODUCT_RELATED_PRODUCT_CATEGORY ( 'detail', '', ( #169 ) ) ;
#58 = LINE ( 'NONE', #11, #204 ) ;
#59 = EDGE_LOOP ( 'NONE', ( #233, #133, #145, #191 ) ) ;
#60 = EDGE_CURVE ( 'NONE', #10, #148, #52, .T. ) ;
#61 = VECTOR ( 'NONE', #136, 1000.000000000000000 ) ;
#62 = PERSON_AND_ORGANIZATION ( #76, #112 ) ;
#63 = APPROVAL_STATUS ( 'not_yet_approved' ) ;
#64 = DIRECTION ( 'NONE',  ( -1.000000000000000000, -0.0000000000000000000, -0.0000000000000000000 ) ) ;
#65 = DIRECTION ( 'NONE',  ( 0.0000000000000000000, -0.0000000000000000000, 1.000000000000000000 ) ) ;
#66 = CC_DESIGN_PERSON_AND_ORGANIZATION_ASSIGNMENT ( #157, #31, ( #201 ) ) ;
#67 = VECTOR ( 'NONE', #74, 1000.000000000000000 ) ;
#68 = VECTOR ( 'NONE', #83, 1000.000000000000000 ) ;
#69 = PRODUCT_DEFINITION ( 'UNKNOWN', '', #114, #101 ) ;
#70 = DIRECTION ( 'NONE',  ( 0.0000000000000000000, 0.0000000000000000000, 1.000000000000000000 ) ) ;
#71 = DIRECTION ( 'NONE',  ( -0.0000000000000000000, 1.000000000000000000, 2.048885995248197400E-016 ) ) ;
#72 = PLANE ( 'NONE',  #187 ) ;
#73 = CLOSED_SHELL ( 'NONE', ( #130, #202, #43, #152, #189, #185 ) ) ;
#74 = DIRECTION ( 'NONE',  ( -1.000000000000000000, -0.0000000000000000000, -0.0000000000000000000 ) ) ;
#75 = EDGE_CURVE ( 'NONE', #139, #190, #27, .T. ) ;
#76 = PERSON ( 'UNSPECIFIED', 'UNSPECIFIED', 'UNSPECIFIED', ('UNSPECIFIED'), ('UNSPECIFIED'), ('UNSPECIFIED') ) ;
#77 = PERSON_AND_ORGANIZATION ( #76, #112 ) ;
#78 = LINE ( 'NONE', #126, #67 ) ;
#79 = ORIENTED_EDGE ( 'NONE', *, *, #199, .F. ) ;
#80 = APPROVAL ( #183, 'UNSPECIFIED' ) ;
#81 = PRODUCT_DEFINITION_SHAPE ( 'NONE', 'NONE',  #69 ) ;
#82 = CC_DESIGN_APPROVAL ( #221, ( #69 ) ) ;
#83 = DIRECTION ( 'NONE',  ( -0.0000000000000000000, 1.000000000000000000, 2.048885995248197400E-016 ) ) ;
#84 = EDGE_CURVE ( 'NONE', #190, #171, #104, .T. ) ;
#85 = ORIENTED_EDGE ( 'NONE', *, *, #134, .F. ) ;
#86 = DIRECTION ( 'NONE',  ( 1.000000000000000000, 0.0000000000000000000, 0.0000000000000000000 ) ) ;
#87 = CARTESIAN_POINT ( 'NONE',  ( 3.000000000000000000, 6.349999999999998800, 6.349999999999999600 ) ) ;
#88 =( NAMED_UNIT ( * ) PLANE_ANGLE_UNIT ( ) SI_UNIT ( $, .RADIAN. ) );
#89 = EDGE_LOOP ( 'NONE', ( #159, #21, #237, #91 ) ) ;
#90 = VECTOR ( 'NONE', #176, 1000.000000000000000 ) ;
#91 = ORIENTED_EDGE ( 'NONE', *, *, #48, .T. ) ;
#92 = APPROVAL_DATE_TIME ( #36, #129 ) ;
#93 = LOCAL_TIME ( 16, 48, 41.00000000000000000, #173 ) ;
#94 = ORIENTED_EDGE ( 'NONE', *, *, #111, .T. ) ;
#95 = CALENDAR_DATE ( 2018, 12, 3 ) ;
#96 = DIRECTION ( 'NONE',  ( 0.0000000000000000000, -2.048885995248197400E-016, 1.000000000000000000 ) ) ;
#97 = CARTESIAN_POINT ( 'NONE',  ( 3.000000000000000000, 6.349999999999998800, 6.349999999999999600 ) ) ;
#98 = PERSON_AND_ORGANIZATION ( #76, #112 ) ;
#99 = PERSON_AND_ORGANIZATION ( #76, #112 ) ;
#100 = CARTESIAN_POINT ( 'NONE',  ( 3.000000000000000000, 6.349999999999998800, -6.349999999999999600 ) ) ;
#101 = DESIGN_CONTEXT ( 'detailed design', #142, 'design' ) ;
#102 = LOCAL_TIME ( 16, 48, 41.00000000000000000, #198 ) ;
#103 = CC_DESIGN_PERSON_AND_ORGANIZATION_ASSIGNMENT ( #62, #4, ( #169 ) ) ;
#104 = LINE ( 'NONE', #97, #150 ) ;
#105 = ORIENTED_EDGE ( 'NONE', *, *, #184, .T. ) ;
#106 = DIRECTION ( 'NONE',  ( 0.0000000000000000000, 0.0000000000000000000, -1.000000000000000000 ) ) ;
#107 = APPROVAL_PERSON_ORGANIZATION ( #33, #221, #226 ) ;
#108 = ORIENTED_EDGE ( 'NONE', *, *, #184, .F. ) ;
#109 = APPROVAL_ROLE ( '' ) ;
#110 = LOCAL_TIME ( 16, 48, 41.00000000000000000, #203 ) ;
#111 = EDGE_CURVE ( 'NONE', #218, #10, #144, .T. ) ;
#112 = ORGANIZATION ( 'UNSPECIFIED', 'UNSPECIFIED', '' ) ;
#113 = LINE ( 'NONE', #8, #200 ) ;
#114 = PRODUCT_DEFINITION_FORMATION_WITH_SPECIFIED_SOURCE ( 'ANY', '', #169, .NOT_KNOWN. ) ;
#115 = ORIENTED_EDGE ( 'NONE', *, *, #199, .T. ) ;
#116 = APPLICATION_PROTOCOL_DEFINITION ( 'international standard', 'config_control_design', 1994, #7 ) ;
#117 = CARTESIAN_POINT ( 'NONE',  ( 3.000000000000000000, -6.350000000000000500, 6.350000000000002300 ) ) ;
#118 = CARTESIAN_POINT ( 'NONE',  ( -3.000000000000000000, -6.350000000000000500, 6.350000000000002300 ) ) ;
#119 = EDGE_CURVE ( 'NONE', #190, #194, #224, .T. ) ;
#120 = PERSON_AND_ORGANIZATION_ROLE ( 'design_supplier' ) ;
#121 = CARTESIAN_POINT ( 'NONE',  ( 3.000000000000000000, 6.349999999999998800, 6.349999999999999600 ) ) ;
#122 = CARTESIAN_POINT ( 'NONE',  ( 3.000000000000000000, -6.350000000000000500, -6.350000000000002300 ) ) ;
#123 = LINE ( 'NONE', #215, #128 ) ;
#124 = EDGE_CURVE ( 'NONE', #194, #218, #13, .T. ) ;
#125 = VERTEX_POINT ( 'NONE', #117 ) ;
#126 = CARTESIAN_POINT ( 'NONE',  ( 3.000000000000000000, 6.349999999999998800, 6.349999999999999600 ) ) ;
#127 = DIRECTION ( 'NONE',  ( 0.0000000000000000000, 0.0000000000000000000, -1.000000000000000000 ) ) ;
#128 = VECTOR ( 'NONE', #143, 1000.000000000000000 ) ;
#129 = APPROVAL ( #63, 'UNSPECIFIED' ) ;
#130 = ADVANCED_FACE ( 'NONE', ( #40 ), #72, .F. ) ;
#131 = DATE_AND_TIME ( #95, #102 ) ;
#132 = VECTOR ( 'NONE', #161, 1000.000000000000000 ) ;
#133 = ORIENTED_EDGE ( 'NONE', *, *, #48, .F. ) ;
#134 = EDGE_CURVE ( 'NONE', #125, #10, #58, .T. ) ;
#135 = DIRECTION ( 'NONE',  ( -0.0000000000000000000, -0.0000000000000000000, 1.000000000000000000 ) ) ;
#136 = DIRECTION ( 'NONE',  ( -0.0000000000000000000, -0.0000000000000000000, 1.000000000000000000 ) ) ;
#137 = CALENDAR_DATE ( 2018, 12, 3 ) ;
#138 = DIRECTION ( 'NONE',  ( 0.0000000000000000000, -1.000000000000000000, -2.048885995248197400E-016 ) ) ;
#139 = VERTEX_POINT ( 'NONE', #122 ) ;
#140 = CARTESIAN_POINT ( 'NONE',  ( -3.000000000000000000, 0.0000000000000000000, 0.0000000000000000000 ) ) ;
#141 = CC_DESIGN_PERSON_AND_ORGANIZATION_ASSIGNMENT ( #98, #120, ( #114 ) ) ;
#142 = APPLICATION_CONTEXT ( 'configuration controlled 3d designs of mechanical parts and assemblies' ) ;
#143 = DIRECTION ( 'NONE',  ( 0.0000000000000000000, -1.000000000000000000, 2.048885995248197400E-016 ) ) ;
#144 = LINE ( 'NONE', #158, #90 ) ;
#145 = ORIENTED_EDGE ( 'NONE', *, *, #38, .F. ) ;
#146 = PLANE ( 'NONE',  #170 ) ;
#147 = PLANE ( 'NONE',  #219 ) ;
#148 = VERTEX_POINT ( 'NONE', #163 ) ;
#149 = AXIS2_PLACEMENT_3D ( 'NONE', #87, #51, #12 ) ;
#150 = VECTOR ( 'NONE', #135, 1000.000000000000000 ) ;
#151 = CALENDAR_DATE ( 2018, 12, 3 ) ;
#152 = ADVANCED_FACE ( 'NONE', ( #235 ), #229, .F. ) ;
#153 = ORIENTED_EDGE ( 'NONE', *, *, #119, .T. ) ;
#154 = EDGE_CURVE ( 'NONE', #148, #194, #113, .T. ) ;
#155 = CARTESIAN_POINT ( 'NONE',  ( 3.000000000000000000, -6.350000000000000500, -6.350000000000002300 ) ) ;
#156 = CARTESIAN_POINT ( 'NONE',  ( 3.000000000000000000, 6.349999999999998800, -6.349999999999999600 ) ) ;
#157 = PERSON_AND_ORGANIZATION ( #76, #112 ) ;
#158 = CARTESIAN_POINT ( 'NONE',  ( -3.000000000000000000, 6.349999999999998800, 6.349999999999999600 ) ) ;
#159 = ORIENTED_EDGE ( 'NONE', *, *, #154, .T. ) ;
#160 = APPROVAL_STATUS ( 'not_yet_approved' ) ;
#161 = DIRECTION ( 'NONE',  ( 0.0000000000000000000, 0.0000000000000000000, -1.000000000000000000 ) ) ;
#162 = PERSON_AND_ORGANIZATION_ROLE ( 'creator' ) ;
#163 = CARTESIAN_POINT ( 'NONE',  ( -3.000000000000000000, -6.350000000000000500, -6.350000000000002300 ) ) ;
#164 = DATE_TIME_ROLE ( 'creation_date' ) ;
#165 = ORIENTED_EDGE ( 'NONE', *, *, #124, .F. ) ;
#166 = DATE_TIME_ROLE ( 'classification_date' ) ;
#167 = CARTESIAN_POINT ( 'NONE',  ( -3.000000000000000000, 6.349999999999998800, -6.349999999999999600 ) ) ;
#168 = LOCAL_TIME ( 16, 48, 41.00000000000000000, #222 ) ;
#169 = PRODUCT ( 'Web Model 43847_43851', 'Web Model 43847_43851', '', ( #23 ) ) ;
#170 = AXIS2_PLACEMENT_3D ( 'NONE', #140, #211, #106 ) ;
#171 = VERTEX_POINT ( 'NONE', #121 ) ;
#172 = ADVANCED_BREP_SHAPE_REPRESENTATION ( 'Web Model 43847_43851', ( #37, #24 ), #174 ) ;
#173 = COORDINATED_UNIVERSAL_TIME_OFFSET ( 5, 0, .BEHIND. ) ;
#174 =( GEOMETRIC_REPRESENTATION_CONTEXT ( 3 ) GLOBAL_UNCERTAINTY_ASSIGNED_CONTEXT ( ( #22 ) ) GLOBAL_UNIT_ASSIGNED_CONTEXT ( ( #50, #88, #223 ) ) REPRESENTATION_CONTEXT ( 'NONE', 'WORKASPACE' ) );
#175 = CARTESIAN_POINT ( 'NONE',  ( 3.000000000000000000, -6.350000000000000500, 6.350000000000002300 ) ) ;
#176 = DIRECTION ( 'NONE',  ( 0.0000000000000000000, -1.000000000000000000, 2.048885995248197400E-016 ) ) ;
#177 = DIRECTION ( 'NONE',  ( 0.0000000000000000000, 0.0000000000000000000, -1.000000000000000000 ) ) ;
#178 = APPROVAL_ROLE ( '' ) ;
#179 = LINE ( 'NONE', #155, #216 ) ;
#180 = CC_DESIGN_APPROVAL ( #129, ( #114 ) ) ;
#181 = ORIENTED_EDGE ( 'NONE', *, *, #60, .F. ) ;
#182 = DIRECTION ( 'NONE',  ( 0.0000000000000000000, 1.000000000000000000, -2.048885995248197400E-016 ) ) ;
#183 = APPROVAL_STATUS ( 'not_yet_approved' ) ;
#184 = EDGE_CURVE ( 'NONE', #171, #125, #123, .T. ) ;
#185 = ADVANCED_FACE ( 'NONE', ( #3 ), #146, .F. ) ;
#186 = LINE ( 'NONE', #175, #132 ) ;
#187 = AXIS2_PLACEMENT_3D ( 'NONE', #54, #196, #182 ) ;
#188 = APPROVAL_PERSON_ORGANIZATION ( #213, #80, #109 ) ;
#189 = ADVANCED_FACE ( 'NONE', ( #56 ), #25, .T. ) ;
#190 = VERTEX_POINT ( 'NONE', #212 ) ;
#191 = ORIENTED_EDGE ( 'NONE', *, *, #134, .T. ) ;
#192 = CARTESIAN_POINT ( 'NONE',  ( -3.000000000000000000, 6.349999999999998800, 6.349999999999999600 ) ) ;
#193 = LOCAL_TIME ( 16, 48, 41.00000000000000000, #234 ) ;
#194 = VERTEX_POINT ( 'NONE', #167 ) ;
#195 = CARTESIAN_POINT ( 'NONE',  ( 0.0000000000000000000, 0.0000000000000000000, 0.0000000000000000000 ) ) ;
#196 = DIRECTION ( 'NONE',  ( 0.0000000000000000000, -2.048885995248197400E-016, -1.000000000000000000 ) ) ;
#197 = AXIS2_PLACEMENT_3D ( 'NONE', #53, #30, #127 ) ;
#198 = COORDINATED_UNIVERSAL_TIME_OFFSET ( 5, 0, .BEHIND. ) ;
#199 = EDGE_CURVE ( 'NONE', #171, #218, #78, .T. ) ;
#200 = VECTOR ( 'NONE', #71, 1000.000000000000000 ) ;
#201 = SECURITY_CLASSIFICATION ( '', '', #210 ) ;
#202 = ADVANCED_FACE ( 'NONE', ( #32 ), #147, .F. ) ;
#203 = COORDINATED_UNIVERSAL_TIME_OFFSET ( 5, 0, .BEHIND. ) ;
#204 = VECTOR ( 'NONE', #214, 1000.000000000000000 ) ;
#205 = CALENDAR_DATE ( 2018, 12, 3 ) ;
#206 = ORIENTED_EDGE ( 'NONE', *, *, #84, .T. ) ;
#207 = DIRECTION ( 'NONE',  ( -0.0000000000000000000, 1.000000000000000000, 0.0000000000000000000 ) ) ;
#208 = CC_DESIGN_DATE_AND_TIME_ASSIGNMENT ( #26, #164, ( #69 ) ) ;
#209 = VECTOR ( 'NONE', #6, 1000.000000000000000 ) ;
#210 = SECURITY_CLASSIFICATION_LEVEL ( 'unclassified' ) ;
#211 = DIRECTION ( 'NONE',  ( 1.000000000000000000, 0.0000000000000000000, 0.0000000000000000000 ) ) ;
#212 = CARTESIAN_POINT ( 'NONE',  ( 3.000000000000000000, 6.349999999999998800, -6.349999999999999600 ) ) ;
#213 = PERSON_AND_ORGANIZATION ( #76, #112 ) ;
#214 = DIRECTION ( 'NONE',  ( -1.000000000000000000, -0.0000000000000000000, -0.0000000000000000000 ) ) ;
#215 = CARTESIAN_POINT ( 'NONE',  ( 3.000000000000000000, 6.349999999999998800, 6.349999999999999600 ) ) ;
#216 = VECTOR ( 'NONE', #64, 1000.000000000000000 ) ;
#217 = APPROVAL_PERSON_ORGANIZATION ( #99, #129, #178 ) ;
#218 = VERTEX_POINT ( 'NONE', #14 ) ;
#219 = AXIS2_PLACEMENT_3D ( 'NONE', #49, #207, #65 ) ;
#220 = CC_DESIGN_PERSON_AND_ORGANIZATION_ASSIGNMENT ( #77, #162, ( #114 ) ) ;
#221 = APPROVAL ( #160, 'UNSPECIFIED' ) ;
#222 = COORDINATED_UNIVERSAL_TIME_OFFSET ( 5, 0, .BEHIND. ) ;
#223 =( NAMED_UNIT ( * ) SI_UNIT ( $, .STERADIAN. ) SOLID_ANGLE_UNIT ( ) );
#224 = LINE ( 'NONE', #42, #209 ) ;
#225 = EDGE_LOOP ( 'NONE', ( #94, #85, #108, #115 ) ) ;
#226 = APPROVAL_ROLE ( '' ) ;
#227 = APPLICATION_PROTOCOL_DEFINITION ( 'international standard', 'config_control_design', 1994, #142 ) ;
#228 = FACE_OUTER_BOUND ( 'NONE', #89, .T. ) ;
#229 = PLANE ( 'NONE',  #149 ) ;
#230 = DATE_AND_TIME ( #20, #110 ) ;
#231 = PERSON_AND_ORGANIZATION ( #76, #112 ) ;
#232 = AXIS2_PLACEMENT_3D ( 'NONE', #156, #96, #138 ) ;
#233 = ORIENTED_EDGE ( 'NONE', *, *, #60, .T. ) ;
#234 = COORDINATED_UNIVERSAL_TIME_OFFSET ( 5, 0, .BEHIND. ) ;
#235 = FACE_OUTER_BOUND ( 'NONE', #46, .T. ) ;
#236 = ORIENTED_EDGE ( 'NONE', *, *, #84, .F. ) ;
#237 = ORIENTED_EDGE ( 'NONE', *, *, #75, .F. ) ;
ENDSEC;
END-ISO-10303-21;
