ISO-10303-21;
HEADER;
FILE_DESCRIPTION (( 'STEP AP203' ),
    '1' );
FILE_NAME ('Web Model 20017_20017.step',
    '2022-03-21T20:28:27',
    ( '' ),
    ( '' ),
    'SwSTEP 2.0',
    'SolidWorks 2021',
    '' );
FILE_SCHEMA (( 'CONFIG_CONTROL_DESIGN' ));
ENDSEC;

DATA;
#1 = DIRECTION ( 'NONE',  ( 1.000000000000000000, 0.000000000000000000, -0.000000000000000000 ) ) ;
#2 = ORIENTED_EDGE ( 'NONE', *, *, #13, .T. ) ;
#3 = PERSON_AND_ORGANIZATION_ROLE ( 'design_supplier' ) ;
#4 = DIRECTION ( 'NONE',  ( -0.000000000000000000, -0.000000000000000000, -1.000000000000000000 ) ) ;
#5 = CIRCLE ( 'NONE', #102, 6.349999999999999645 ) ;
#6 = VERTEX_POINT ( 'NONE', #56 ) ;
#7 = DATE_AND_TIME ( #95, #67 ) ;
#8 = DIRECTION ( 'NONE',  ( 0.000000000000000000, 0.000000000000000000, 1.000000000000000000 ) ) ;
#9 = APPROVAL_STATUS ( 'not_yet_approved' ) ;
#10 = ORIENTED_EDGE ( 'NONE', *, *, #89, .T. ) ;
#11 = ADVANCED_FACE ( 'NONE', ( #35 ), #111, .T. ) ;
#12 = ORIENTED_EDGE ( 'NONE', *, *, #16, .T. ) ;
#13 = EDGE_CURVE ( 'NONE', #15, #169, #103, .T. ) ;
#14 = PRODUCT_DEFINITION_FORMATION_WITH_SPECIFIED_SOURCE ( 'ANY', '', #175, .NOT_KNOWN. ) ;
#15 = VERTEX_POINT ( 'NONE', #58 ) ;
#16 = EDGE_CURVE ( 'NONE', #6, #151, #66, .T. ) ;
#17 = ADVANCED_FACE ( 'NONE', ( #108 ), #96, .F. ) ;
#18 = DIRECTION ( 'NONE',  ( 0.000000000000000000, 0.000000000000000000, 1.000000000000000000 ) ) ;
#19 = CARTESIAN_POINT ( 'NONE',  ( -6.349999999999999645, 0.000000000000000000, 2.000000000000000000 ) ) ;
#20 = CARTESIAN_POINT ( 'NONE',  ( 0.000000000000000000, 0.000000000000000000, 0.000000000000000000 ) ) ;
#21 = CIRCLE ( 'NONE', #28, 6.349999999999999645 ) ;
#22 = PERSON_AND_ORGANIZATION_ROLE ( 'creator' ) ;
#23 = ORIENTED_EDGE ( 'NONE', *, *, #94, .T. ) ;
#24 = APPLICATION_CONTEXT ( 'configuration controlled 3d designs of mechanical parts and assemblies' ) ;
#25 = MECHANICAL_CONTEXT ( 'NONE', #129, 'mechanical' ) ;
#26 = SECURITY_CLASSIFICATION ( '', '', #75 ) ;
#27 = APPROVAL_DATE_TIME ( #138, #132 ) ;
#28 = AXIS2_PLACEMENT_3D ( 'NONE', #91, #148, #29 ) ;
#29 = DIRECTION ( 'NONE',  ( 1.000000000000000000, 0.000000000000000000, 0.000000000000000000 ) ) ;
#30 = CC_DESIGN_PERSON_AND_ORGANIZATION_ASSIGNMENT ( #77, #116, ( #130 ) ) ;
#31 = LINE ( 'NONE', #83, #157 ) ;
#32 = APPLICATION_PROTOCOL_DEFINITION ( 'international standard', 'config_control_design', 1994, #24 ) ;
#33 = DIRECTION ( 'NONE',  ( -0.000000000000000000, -0.000000000000000000, -1.000000000000000000 ) ) ;
#34 = APPROVAL_STATUS ( 'not_yet_approved' ) ;
#35 = FACE_OUTER_BOUND ( 'NONE', #162, .T. ) ;
#36 = PERSON ( 'UNSPECIFIED', 'UNSPECIFIED', 'UNSPECIFIED', ('UNSPECIFIED'), ('UNSPECIFIED'), ('UNSPECIFIED') ) ;
#37 = PERSON_AND_ORGANIZATION ( #36, #125 ) ;
#38 = ADVANCED_FACE ( 'NONE', ( #121 ), #92, .T. ) ;
#39 = SHAPE_DEFINITION_REPRESENTATION ( #119, #145 ) ;
#40 = LOCAL_TIME ( 16, 28, 27.00000000000000000, #88 ) ;
#41 = CC_DESIGN_SECURITY_CLASSIFICATION ( #26, ( #14 ) ) ;
#42 = APPROVAL ( #9, 'UNSPECIFIED' ) ;
#43 = EDGE_LOOP ( 'NONE', ( #122, #23, #51, #59 ) ) ;
#44 = DIRECTION ( 'NONE',  ( 0.000000000000000000, 0.000000000000000000, 1.000000000000000000 ) ) ;
#45 = PERSON_AND_ORGANIZATION_ROLE ( 'classification_officer' ) ;
#46 = AXIS2_PLACEMENT_3D ( 'NONE', #159, #4, #99 ) ;
#47 = CARTESIAN_POINT ( 'NONE',  ( 0.000000000000000000, 0.000000000000000000, 2.000000000000000000 ) ) ;
#48 =( LENGTH_UNIT ( ) NAMED_UNIT ( * ) SI_UNIT ( .MILLI., .METRE. ) );
#49 = DIRECTION ( 'NONE',  ( 1.000000000000000000, 0.000000000000000000, -0.000000000000000000 ) ) ;
#50 = APPROVAL_DATE_TIME ( #70, #42 ) ;
#51 = ORIENTED_EDGE ( 'NONE', *, *, #93, .T. ) ;
#52 = APPLICATION_PROTOCOL_DEFINITION ( 'international standard', 'config_control_design', 1994, #129 ) ;
#53 = CALENDAR_DATE ( 2022, 21, 3 ) ;
#54 = PRODUCT_RELATED_PRODUCT_CATEGORY ( 'detail', '', ( #175 ) ) ;
#55 = APPROVAL_PERSON_ORGANIZATION ( #113, #76, #143 ) ;
#56 = CARTESIAN_POINT ( 'NONE',  ( -6.349999999999999645, 0.000000000000000000, 0.000000000000000000 ) ) ;
#57 = ORIENTED_EDGE ( 'NONE', *, *, #93, .F. ) ;
#58 = CARTESIAN_POINT ( 'NONE',  ( 6.349999999999999645, 7.776507174585692163E-16, 2.000000000000000000 ) ) ;
#59 = ORIENTED_EDGE ( 'NONE', *, *, #89, .F. ) ;
#60 = PERSON_AND_ORGANIZATION ( #36, #125 ) ;
#61 = DIRECTION ( 'NONE',  ( 0.000000000000000000, 0.000000000000000000, 1.000000000000000000 ) ) ;
#62 = APPROVAL_ROLE ( '' ) ;
#63 = CC_DESIGN_PERSON_AND_ORGANIZATION_ASSIGNMENT ( #37, #152, ( #175 ) ) ;
#64 = CC_DESIGN_PERSON_AND_ORGANIZATION_ASSIGNMENT ( #161, #3, ( #14 ) ) ;
#65 = LOCAL_TIME ( 16, 28, 27.00000000000000000, #126 ) ;
#66 = CIRCLE ( 'NONE', #131, 6.349999999999999645 ) ;
#67 = LOCAL_TIME ( 16, 28, 27.00000000000000000, #128 ) ;
#68 = CARTESIAN_POINT ( 'NONE',  ( 0.000000000000000000, 0.000000000000000000, 2.000000000000000000 ) ) ;
#69 = EDGE_LOOP ( 'NONE', ( #133, #57 ) ) ;
#70 = DATE_AND_TIME ( #135, #40 ) ;
#71 = DIRECTION ( 'NONE',  ( 1.000000000000000000, 0.000000000000000000, 0.000000000000000000 ) ) ;
#72 = APPROVAL_STATUS ( 'not_yet_approved' ) ;
#73 = LOCAL_TIME ( 16, 28, 27.00000000000000000, #140 ) ;
#74 = ORIENTED_EDGE ( 'NONE', *, *, #155, .F. ) ;
#75 = SECURITY_CLASSIFICATION_LEVEL ( 'unclassified' ) ;
#76 = APPROVAL ( #72, 'UNSPECIFIED' ) ;
#77 = PERSON_AND_ORGANIZATION ( #36, #125 ) ;
#78 = PERSON_AND_ORGANIZATION ( #36, #125 ) ;
#79 = CC_DESIGN_DATE_AND_TIME_ASSIGNMENT ( #7, #100, ( #26 ) ) ;
#80 =( GEOMETRIC_REPRESENTATION_CONTEXT ( 3 ) GLOBAL_UNCERTAINTY_ASSIGNED_CONTEXT ( ( #164 ) ) GLOBAL_UNIT_ASSIGNED_CONTEXT ( ( #48, #115, #141 ) ) REPRESENTATION_CONTEXT ( 'NONE', 'WORKASPACE' ) );
#81 = AXIS2_PLACEMENT_3D ( 'NONE', #68, #8, #1 ) ;
#82 = CARTESIAN_POINT ( 'NONE',  ( -6.349999999999999645, 0.000000000000000000, 2.000000000000000000 ) ) ;
#83 = CARTESIAN_POINT ( 'NONE',  ( 6.349999999999999645, 7.776507174585692163E-16, 2.000000000000000000 ) ) ;
#84 = DIRECTION ( 'NONE',  ( 1.000000000000000000, 0.000000000000000000, 0.000000000000000000 ) ) ;
#85 = COORDINATED_UNIVERSAL_TIME_OFFSET ( 5, 0, .BEHIND. ) ;
#86 = DIRECTION ( 'NONE',  ( 0.000000000000000000, 0.000000000000000000, 1.000000000000000000 ) ) ;
#87 = CARTESIAN_POINT ( 'NONE',  ( 0.000000000000000000, 0.000000000000000000, 0.000000000000000000 ) ) ;
#88 = COORDINATED_UNIVERSAL_TIME_OFFSET ( 5, 0, .BEHIND. ) ;
#89 = EDGE_CURVE ( 'NONE', #169, #6, #98, .T. ) ;
#90 = AXIS2_PLACEMENT_3D ( 'NONE', #87, #18, #168 ) ;
#91 = CARTESIAN_POINT ( 'NONE',  ( 0.000000000000000000, 0.000000000000000000, 2.000000000000000000 ) ) ;
#92 = CYLINDRICAL_SURFACE ( 'NONE', #163, 6.349999999999999645 ) ;
#93 = EDGE_CURVE ( 'NONE', #151, #6, #5, .T. ) ;
#94 = EDGE_CURVE ( 'NONE', #15, #151, #31, .T. ) ;
#95 = CALENDAR_DATE ( 2022, 21, 3 ) ;
#96 = PLANE ( 'NONE',  #147 ) ;
#97 = CALENDAR_DATE ( 2022, 21, 3 ) ;
#98 = LINE ( 'NONE', #19, #118 ) ;
#99 = DIRECTION ( 'NONE',  ( -1.000000000000000000, 0.000000000000000000, 0.000000000000000000 ) ) ;
#100 = DATE_TIME_ROLE ( 'classification_date' ) ;
#101 = ORIENTED_EDGE ( 'NONE', *, *, #94, .F. ) ;
#102 = AXIS2_PLACEMENT_3D ( 'NONE', #20, #61, #71 ) ;
#103 = CIRCLE ( 'NONE', #112, 6.349999999999999645 ) ;
#104 = CARTESIAN_POINT ( 'NONE',  ( 6.349999999999999645, 7.776507174585692163E-16, 0.000000000000000000 ) ) ;
#105 = CC_DESIGN_PERSON_AND_ORGANIZATION_ASSIGNMENT ( #60, #45, ( #26 ) ) ;
#106 = DIRECTION ( 'NONE',  ( 1.000000000000000000, 0.000000000000000000, 0.000000000000000000 ) ) ;
#107 = APPROVAL_ROLE ( '' ) ;
#108 = FACE_OUTER_BOUND ( 'NONE', #69, .T. ) ;
#109 = APPROVAL_PERSON_ORGANIZATION ( #156, #42, #107 ) ;
#110 = DATE_TIME_ROLE ( 'creation_date' ) ;
#111 = PLANE ( 'NONE',  #81 ) ;
#112 = AXIS2_PLACEMENT_3D ( 'NONE', #47, #86, #106 ) ;
#113 = PERSON_AND_ORGANIZATION ( #36, #125 ) ;
#114 = CYLINDRICAL_SURFACE ( 'NONE', #46, 6.349999999999999645 ) ;
#115 =( NAMED_UNIT ( * ) PLANE_ANGLE_UNIT ( ) SI_UNIT ( $, .RADIAN. ) );
#116 = PERSON_AND_ORGANIZATION_ROLE ( 'creator' ) ;
#117 = CC_DESIGN_APPROVAL ( #132, ( #26 ) ) ;
#118 = VECTOR ( 'NONE', #153, 1000.000000000000000 ) ;
#119 = PRODUCT_DEFINITION_SHAPE ( 'NONE', 'NONE',  #130 ) ;
#120 = ADVANCED_FACE ( 'NONE', ( #124 ), #114, .T. ) ;
#121 = FACE_OUTER_BOUND ( 'NONE', #171, .T. ) ;
#122 = ORIENTED_EDGE ( 'NONE', *, *, #13, .F. ) ;
#123 = DATE_AND_TIME ( #97, #73 ) ;
#124 = FACE_OUTER_BOUND ( 'NONE', #43, .T. ) ;
#125 = ORGANIZATION ( 'UNSPECIFIED', 'UNSPECIFIED', '' ) ;
#126 = COORDINATED_UNIVERSAL_TIME_OFFSET ( 5, 0, .BEHIND. ) ;
#127 = ORIENTED_EDGE ( 'NONE', *, *, #155, .T. ) ;
#128 = COORDINATED_UNIVERSAL_TIME_OFFSET ( 5, 0, .BEHIND. ) ;
#129 = APPLICATION_CONTEXT ( 'configuration controlled 3d designs of mechanical parts and assemblies' ) ;
#130 = PRODUCT_DEFINITION ( 'UNKNOWN', '', #14, #137 ) ;
#131 = AXIS2_PLACEMENT_3D ( 'NONE', #160, #44, #84 ) ;
#132 = APPROVAL ( #34, 'UNSPECIFIED' ) ;
#133 = ORIENTED_EDGE ( 'NONE', *, *, #16, .F. ) ;
#134 = DIRECTION ( 'NONE',  ( -0.000000000000000000, -0.000000000000000000, -1.000000000000000000 ) ) ;
#135 = CALENDAR_DATE ( 2022, 21, 3 ) ;
#136 = DIRECTION ( 'NONE',  ( -1.000000000000000000, 0.000000000000000000, 0.000000000000000000 ) ) ;
#137 = DESIGN_CONTEXT ( 'detailed design', #24, 'design' ) ;
#138 = DATE_AND_TIME ( #154, #174 ) ;
#139 = DIRECTION ( 'NONE',  ( 0.000000000000000000, 0.000000000000000000, 1.000000000000000000 ) ) ;
#140 = COORDINATED_UNIVERSAL_TIME_OFFSET ( 5, 0, .BEHIND. ) ;
#141 =( NAMED_UNIT ( * ) SI_UNIT ( $, .STERADIAN. ) SOLID_ANGLE_UNIT ( ) );
#142 = CC_DESIGN_PERSON_AND_ORGANIZATION_ASSIGNMENT ( #78, #22, ( #14 ) ) ;
#143 = APPROVAL_ROLE ( '' ) ;
#144 = CC_DESIGN_APPROVAL ( #42, ( #14 ) ) ;
#145 = ADVANCED_BREP_SHAPE_REPRESENTATION ( 'Web Model 20017_20017', ( #146, #90 ), #80 ) ;
#146 = MANIFOLD_SOLID_BREP ( 'Boss-Extrude1', #158 ) ;
#147 = AXIS2_PLACEMENT_3D ( 'NONE', #166, #139, #49 ) ;
#148 = DIRECTION ( 'NONE',  ( 0.000000000000000000, 0.000000000000000000, 1.000000000000000000 ) ) ;
#149 = CARTESIAN_POINT ( 'NONE',  ( 0.000000000000000000, 0.000000000000000000, 2.000000000000000000 ) ) ;
#150 = DATE_AND_TIME ( #53, #65 ) ;
#151 = VERTEX_POINT ( 'NONE', #104 ) ;
#152 = PERSON_AND_ORGANIZATION_ROLE ( 'design_owner' ) ;
#153 = DIRECTION ( 'NONE',  ( -0.000000000000000000, -0.000000000000000000, -1.000000000000000000 ) ) ;
#154 = CALENDAR_DATE ( 2022, 21, 3 ) ;
#155 = EDGE_CURVE ( 'NONE', #169, #15, #21, .T. ) ;
#156 = PERSON_AND_ORGANIZATION ( #36, #125 ) ;
#157 = VECTOR ( 'NONE', #134, 1000.000000000000000 ) ;
#158 = CLOSED_SHELL ( 'NONE', ( #120, #38, #11, #17 ) ) ;
#159 = CARTESIAN_POINT ( 'NONE',  ( 0.000000000000000000, 0.000000000000000000, 2.000000000000000000 ) ) ;
#160 = CARTESIAN_POINT ( 'NONE',  ( 0.000000000000000000, 0.000000000000000000, 0.000000000000000000 ) ) ;
#161 = PERSON_AND_ORGANIZATION ( #36, #125 ) ;
#162 = EDGE_LOOP ( 'NONE', ( #127, #2 ) ) ;
#163 = AXIS2_PLACEMENT_3D ( 'NONE', #149, #33, #136 ) ;
#164 = UNCERTAINTY_MEASURE_WITH_UNIT (LENGTH_MEASURE( 1.000000000000000082E-05 ), #48, 'distance_accuracy_value', 'NONE');
#165 = PERSON_AND_ORGANIZATION ( #36, #125 ) ;
#166 = CARTESIAN_POINT ( 'NONE',  ( 0.000000000000000000, 0.000000000000000000, 0.000000000000000000 ) ) ;
#167 = APPROVAL_PERSON_ORGANIZATION ( #165, #132, #62 ) ;
#168 = DIRECTION ( 'NONE',  ( 1.000000000000000000, 0.000000000000000000, 0.000000000000000000 ) ) ;
#169 = VERTEX_POINT ( 'NONE', #82 ) ;
#170 = APPROVAL_DATE_TIME ( #123, #76 ) ;
#171 = EDGE_LOOP ( 'NONE', ( #101, #74, #10, #12 ) ) ;
#172 = CC_DESIGN_APPROVAL ( #76, ( #130 ) ) ;
#173 = CC_DESIGN_DATE_AND_TIME_ASSIGNMENT ( #150, #110, ( #130 ) ) ;
#174 = LOCAL_TIME ( 16, 28, 27.00000000000000000, #85 ) ;
#175 = PRODUCT ( 'Web Model 20017_20017', 'Web Model 20017_20017', '', ( #25 ) ) ;
ENDSEC;
END-ISO-10303-21;
