ISO-10303-21;
HEADER;
FILE_DESCRIPTION (( 'STEP AP203' ),
    '1' );
FILE_NAME ('Web Model 84484_48188.step',
    '2017-05-19T15:03:14',
    ( '' ),
    ( '' ),
    'SwSTEP 2.0',
    'SolidWorks 2016',
    '' );
FILE_SCHEMA (( 'CONFIG_CONTROL_DESIGN' ));
ENDSEC;

DATA;
#1 = CC_DESIGN_APPROVAL ( #124, ( #36 ) ) ;
#2 = APPROVAL_PERSON_ORGANIZATION ( #99, #63, #69 ) ;
#3 = DIRECTION ( 'NONE',  ( 0.0000000000000000000, 0.0000000000000000000, 1.000000000000000000 ) ) ;
#4 = DIRECTION ( 'NONE',  ( -0.0000000000000000000, -0.0000000000000000000, -1.000000000000000000 ) ) ;
#5 = PERSON_AND_ORGANIZATION ( #151, #24 ) ;
#6 =( LENGTH_UNIT ( ) NAMED_UNIT ( * ) SI_UNIT ( .MILLI., .METRE. ) );
#7 = SHAPE_DEFINITION_REPRESENTATION ( #145, #136 ) ;
#8 = DIRECTION ( 'NONE',  ( 1.000000000000000000, 0.0000000000000000000, -0.0000000000000000000 ) ) ;
#9 = DIRECTION ( 'NONE',  ( 0.0000000000000000000, 0.0000000000000000000, 1.000000000000000000 ) ) ;
#10 = CC_DESIGN_APPROVAL ( #63, ( #22 ) ) ;
#11 = LOCAL_TIME ( 11, 3, 14.00000000000000000, #116 ) ;
#12 = CC_DESIGN_DATE_AND_TIME_ASSIGNMENT ( #14, #156, ( #22 ) ) ;
#13 = ORIENTED_EDGE ( 'NONE', *, *, #72, .T. ) ;
#14 = DATE_AND_TIME ( #154, #149 ) ;
#15 = APPROVAL ( #113, 'UNSPECIFIED' ) ;
#16 = DIRECTION ( 'NONE',  ( -1.000000000000000000, 0.0000000000000000000, 0.0000000000000000000 ) ) ;
#17 = COORDINATED_UNIVERSAL_TIME_OFFSET ( 5, 0, .BEHIND. ) ;
#18 = FACE_OUTER_BOUND ( 'NONE', #90, .T. ) ;
#19 = APPROVAL_PERSON_ORGANIZATION ( #121, #124, #43 ) ;
#20 = MANIFOLD_SOLID_BREP ( 'Extrude1', #81 ) ;
#21 = DATE_TIME_ROLE ( 'creation_date' ) ;
#22 = SECURITY_CLASSIFICATION ( '', '', #70 ) ;
#23 = DATE_AND_TIME ( #123, #31 ) ;
#24 = ORGANIZATION ( 'UNSPECIFIED', 'UNSPECIFIED', '' ) ;
#25 = EDGE_CURVE ( 'NONE', #50, #61, #27, .T. ) ;
#26 = CALENDAR_DATE ( 2017, 19, 5 ) ;
#27 = LINE ( 'NONE', #93, #173 ) ;
#28 = CARTESIAN_POINT ( 'NONE',  ( -6.250000000000000000, 0.0000000000000000000, 0.0000000000000000000 ) ) ;
#29 = DIRECTION ( 'NONE',  ( -0.0000000000000000000, -0.0000000000000000000, -1.000000000000000000 ) ) ;
#30 = CARTESIAN_POINT ( 'NONE',  ( 0.0000000000000000000, 0.0000000000000000000, 2.000000000000000000 ) ) ;
#31 = LOCAL_TIME ( 11, 3, 14.00000000000000000, #47 ) ;
#32 = PERSON_AND_ORGANIZATION_ROLE ( 'design_supplier' ) ;
#33 = EDGE_CURVE ( 'NONE', #53, #62, #91, .T. ) ;
#34 = EDGE_LOOP ( 'NONE', ( #88, #38 ) ) ;
#35 = PERSON_AND_ORGANIZATION_ROLE ( 'classification_officer' ) ;
#36 = PRODUCT_DEFINITION ( 'UNKNOWN', '', #148, #171 ) ;
#37 = ORIENTED_EDGE ( 'NONE', *, *, #25, .F. ) ;
#38 = ORIENTED_EDGE ( 'NONE', *, *, #77, .F. ) ;
#39 = DATE_AND_TIME ( #95, #133 ) ;
#40 = PLANE ( 'NONE',  #161 ) ;
#41 = CARTESIAN_POINT ( 'NONE',  ( 0.0000000000000000000, 0.0000000000000000000, 2.000000000000000000 ) ) ;
#42 = CARTESIAN_POINT ( 'NONE',  ( 6.250000000000000000, 7.654042494670957600E-016, 2.000000000000000000 ) ) ;
#43 = APPROVAL_ROLE ( '' ) ;
#44 = DIRECTION ( 'NONE',  ( 0.0000000000000000000, 0.0000000000000000000, 1.000000000000000000 ) ) ;
#45 = ORIENTED_EDGE ( 'NONE', *, *, #33, .T. ) ;
#46 = CIRCLE ( 'NONE', #92, 6.250000000000000000 ) ;
#47 = COORDINATED_UNIVERSAL_TIME_OFFSET ( 5, 0, .BEHIND. ) ;
#48 = CIRCLE ( 'NONE', #174, 6.250000000000000000 ) ;
#49 = PERSON_AND_ORGANIZATION ( #151, #24 ) ;
#50 = VERTEX_POINT ( 'NONE', #42 ) ;
#51 = VECTOR ( 'NONE', #150, 1000.000000000000000 ) ;
#52 = CARTESIAN_POINT ( 'NONE',  ( 0.0000000000000000000, 0.0000000000000000000, 0.0000000000000000000 ) ) ;
#53 = VERTEX_POINT ( 'NONE', #108 ) ;
#54 = PERSON_AND_ORGANIZATION_ROLE ( 'creator' ) ;
#55 = PERSON_AND_ORGANIZATION ( #151, #24 ) ;
#56 = DIRECTION ( 'NONE',  ( 1.000000000000000000, 0.0000000000000000000, 0.0000000000000000000 ) ) ;
#57 = APPLICATION_PROTOCOL_DEFINITION ( 'international standard', 'config_control_design', 1994, #97 ) ;
#58 = APPLICATION_CONTEXT ( 'configuration controlled 3d designs of mechanical parts and assemblies' ) ;
#59 = FACE_OUTER_BOUND ( 'NONE', #71, .T. ) ;
#60 = APPROVAL_STATUS ( 'not_yet_approved' ) ;
#61 = VERTEX_POINT ( 'NONE', #119 ) ;
#62 = VERTEX_POINT ( 'NONE', #28 ) ;
#63 = APPROVAL ( #112, 'UNSPECIFIED' ) ;
#64 = DIRECTION ( 'NONE',  ( -0.0000000000000000000, -0.0000000000000000000, -1.000000000000000000 ) ) ;
#65 = CC_DESIGN_SECURITY_CLASSIFICATION ( #22, ( #148 ) ) ;
#66 = CC_DESIGN_PERSON_AND_ORGANIZATION_ASSIGNMENT ( #49, #54, ( #36 ) ) ;
#67 = UNCERTAINTY_MEASURE_WITH_UNIT (LENGTH_MEASURE( 1.000000000000000100E-005 ), #6, 'distance_accuracy_value', 'NONE');
#68 = DIRECTION ( 'NONE',  ( 1.000000000000000000, 0.0000000000000000000, 0.0000000000000000000 ) ) ;
#69 = APPROVAL_ROLE ( '' ) ;
#70 = SECURITY_CLASSIFICATION_LEVEL ( 'unclassified' ) ;
#71 = EDGE_LOOP ( 'NONE', ( #37, #168, #45, #142 ) ) ;
#72 = EDGE_CURVE ( 'NONE', #53, #50, #146, .T. ) ;
#73 = CIRCLE ( 'NONE', #103, 6.250000000000000000 ) ;
#74 = PERSON_AND_ORGANIZATION ( #151, #24 ) ;
#75 = COORDINATED_UNIVERSAL_TIME_OFFSET ( 5, 0, .BEHIND. ) ;
#76 = ADVANCED_FACE ( 'NONE', ( #125 ), #141, .T. ) ;
#77 = EDGE_CURVE ( 'NONE', #61, #62, #73, .T. ) ;
#78 = APPROVAL_PERSON_ORGANIZATION ( #55, #15, #157 ) ;
#79 = PLANE ( 'NONE',  #114 ) ;
#80 = CC_DESIGN_PERSON_AND_ORGANIZATION_ASSIGNMENT ( #74, #158, ( #148 ) ) ;
#81 = CLOSED_SHELL ( 'NONE', ( #76, #128, #165, #126 ) ) ;
#82 = AXIS2_PLACEMENT_3D ( 'NONE', #169, #29, #94 ) ;
#83 = COORDINATED_UNIVERSAL_TIME_OFFSET ( 5, 0, .BEHIND. ) ;
#84 = DIRECTION ( 'NONE',  ( 1.000000000000000000, 0.0000000000000000000, 0.0000000000000000000 ) ) ;
#85 = LOCAL_TIME ( 11, 3, 14.00000000000000000, #75 ) ;
#86 = CARTESIAN_POINT ( 'NONE',  ( 0.0000000000000000000, 0.0000000000000000000, 0.0000000000000000000 ) ) ;
#87 =( NAMED_UNIT ( * ) PLANE_ANGLE_UNIT ( ) SI_UNIT ( $, .RADIAN. ) );
#88 = ORIENTED_EDGE ( 'NONE', *, *, #139, .F. ) ;
#89 = AXIS2_PLACEMENT_3D ( 'NONE', #118, #3, #167 ) ;
#90 = EDGE_LOOP ( 'NONE', ( #13, #102 ) ) ;
#91 = LINE ( 'NONE', #153, #51 ) ;
#92 = AXIS2_PLACEMENT_3D ( 'NONE', #86, #44, #56 ) ;
#93 = CARTESIAN_POINT ( 'NONE',  ( 6.250000000000000000, 7.654042494670957600E-016, 2.000000000000000000 ) ) ;
#94 = DIRECTION ( 'NONE',  ( -1.000000000000000000, 0.0000000000000000000, 0.0000000000000000000 ) ) ;
#95 = CALENDAR_DATE ( 2017, 19, 5 ) ;
#96 = AXIS2_PLACEMENT_3D ( 'NONE', #30, #64, #16 ) ;
#97 = APPLICATION_CONTEXT ( 'configuration controlled 3d designs of mechanical parts and assemblies' ) ;
#98 = PERSON_AND_ORGANIZATION_ROLE ( 'design_owner' ) ;
#99 = PERSON_AND_ORGANIZATION ( #151, #24 ) ;
#100 = DATE_AND_TIME ( #138, #85 ) ;
#101 = CC_DESIGN_APPROVAL ( #15, ( #148 ) ) ;
#102 = ORIENTED_EDGE ( 'NONE', *, *, #127, .T. ) ;
#103 = AXIS2_PLACEMENT_3D ( 'NONE', #52, #104, #132 ) ;
#104 = DIRECTION ( 'NONE',  ( 0.0000000000000000000, 0.0000000000000000000, 1.000000000000000000 ) ) ;
#105 = CC_DESIGN_PERSON_AND_ORGANIZATION_ASSIGNMENT ( #115, #32, ( #148 ) ) ;
#106 = DIRECTION ( 'NONE',  ( 0.0000000000000000000, 0.0000000000000000000, 1.000000000000000000 ) ) ;
#107 = ORIENTED_EDGE ( 'NONE', *, *, #127, .F. ) ;
#108 = CARTESIAN_POINT ( 'NONE',  ( -6.250000000000000000, 0.0000000000000000000, 2.000000000000000000 ) ) ;
#109 = ORIENTED_EDGE ( 'NONE', *, *, #77, .T. ) ;
#110 = AXIS2_PLACEMENT_3D ( 'NONE', #137, #134, #68 ) ;
#111 = APPROVAL_DATE_TIME ( #23, #15 ) ;
#112 = APPROVAL_STATUS ( 'not_yet_approved' ) ;
#113 = APPROVAL_STATUS ( 'not_yet_approved' ) ;
#114 = AXIS2_PLACEMENT_3D ( 'NONE', #117, #9, #8 ) ;
#115 = PERSON_AND_ORGANIZATION ( #151, #24 ) ;
#116 = COORDINATED_UNIVERSAL_TIME_OFFSET ( 5, 0, .BEHIND. ) ;
#117 = CARTESIAN_POINT ( 'NONE',  ( 0.0000000000000000000, 0.0000000000000000000, 2.000000000000000000 ) ) ;
#118 = CARTESIAN_POINT ( 'NONE',  ( 0.0000000000000000000, 0.0000000000000000000, 2.000000000000000000 ) ) ;
#119 = CARTESIAN_POINT ( 'NONE',  ( 6.250000000000000000, 7.654042494670957600E-016, 0.0000000000000000000 ) ) ;
#120 = MECHANICAL_CONTEXT ( 'NONE', #58, 'mechanical' ) ;
#121 = PERSON_AND_ORGANIZATION ( #151, #24 ) ;
#122 = ORIENTED_EDGE ( 'NONE', *, *, #25, .T. ) ;
#123 = CALENDAR_DATE ( 2017, 19, 5 ) ;
#124 = APPROVAL ( #60, 'UNSPECIFIED' ) ;
#125 = FACE_OUTER_BOUND ( 'NONE', #170, .T. ) ;
#126 = ADVANCED_FACE ( 'NONE', ( #130 ), #40, .F. ) ;
#127 = EDGE_CURVE ( 'NONE', #50, #53, #48, .T. ) ;
#128 = ADVANCED_FACE ( 'NONE', ( #59 ), #159, .T. ) ;
#129 = DIRECTION ( 'NONE',  ( 0.0000000000000000000, 0.0000000000000000000, 1.000000000000000000 ) ) ;
#130 = FACE_OUTER_BOUND ( 'NONE', #34, .T. ) ;
#131 = DIRECTION ( 'NONE',  ( 1.000000000000000000, 0.0000000000000000000, -0.0000000000000000000 ) ) ;
#132 = DIRECTION ( 'NONE',  ( 1.000000000000000000, 0.0000000000000000000, 0.0000000000000000000 ) ) ;
#133 = LOCAL_TIME ( 11, 3, 14.00000000000000000, #17 ) ;
#134 = DIRECTION ( 'NONE',  ( 0.0000000000000000000, 0.0000000000000000000, 1.000000000000000000 ) ) ;
#135 = CC_DESIGN_DATE_AND_TIME_ASSIGNMENT ( #147, #21, ( #36 ) ) ;
#136 = ADVANCED_BREP_SHAPE_REPRESENTATION ( 'Web Model 84484_48188', ( #20, #110 ), #155 ) ;
#137 = CARTESIAN_POINT ( 'NONE',  ( 0.0000000000000000000, 0.0000000000000000000, 0.0000000000000000000 ) ) ;
#138 = CALENDAR_DATE ( 2017, 19, 5 ) ;
#139 = EDGE_CURVE ( 'NONE', #62, #61, #46, .T. ) ;
#140 =( NAMED_UNIT ( * ) SI_UNIT ( $, .STERADIAN. ) SOLID_ANGLE_UNIT ( ) );
#141 = CYLINDRICAL_SURFACE ( 'NONE', #96, 6.250000000000000000 ) ;
#142 = ORIENTED_EDGE ( 'NONE', *, *, #139, .T. ) ;
#143 = APPROVAL_DATE_TIME ( #39, #124 ) ;
#144 = CC_DESIGN_PERSON_AND_ORGANIZATION_ASSIGNMENT ( #162, #98, ( #164 ) ) ;
#145 = PRODUCT_DEFINITION_SHAPE ( 'NONE', 'NONE',  #36 ) ;
#146 = CIRCLE ( 'NONE', #89, 6.250000000000000000 ) ;
#147 = DATE_AND_TIME ( #26, #11 ) ;
#148 = PRODUCT_DEFINITION_FORMATION_WITH_SPECIFIED_SOURCE ( 'ANY', '', #164, .NOT_KNOWN. ) ;
#149 = LOCAL_TIME ( 11, 3, 14.00000000000000000, #83 ) ;
#150 = DIRECTION ( 'NONE',  ( -0.0000000000000000000, -0.0000000000000000000, -1.000000000000000000 ) ) ;
#151 = PERSON ( 'UNSPECIFIED', 'UNSPECIFIED', 'UNSPECIFIED', ('UNSPECIFIED'), ('UNSPECIFIED'), ('UNSPECIFIED') ) ;
#152 = APPROVAL_DATE_TIME ( #100, #63 ) ;
#153 = CARTESIAN_POINT ( 'NONE',  ( -6.250000000000000000, 0.0000000000000000000, 2.000000000000000000 ) ) ;
#154 = CALENDAR_DATE ( 2017, 19, 5 ) ;
#155 =( GEOMETRIC_REPRESENTATION_CONTEXT ( 3 ) GLOBAL_UNCERTAINTY_ASSIGNED_CONTEXT ( ( #67 ) ) GLOBAL_UNIT_ASSIGNED_CONTEXT ( ( #6, #87, #140 ) ) REPRESENTATION_CONTEXT ( 'NONE', 'WORKASPACE' ) );
#156 = DATE_TIME_ROLE ( 'classification_date' ) ;
#157 = APPROVAL_ROLE ( '' ) ;
#158 = PERSON_AND_ORGANIZATION_ROLE ( 'creator' ) ;
#159 = CYLINDRICAL_SURFACE ( 'NONE', #82, 6.250000000000000000 ) ;
#160 = CC_DESIGN_PERSON_AND_ORGANIZATION_ASSIGNMENT ( #5, #35, ( #22 ) ) ;
#161 = AXIS2_PLACEMENT_3D ( 'NONE', #163, #106, #131 ) ;
#162 = PERSON_AND_ORGANIZATION ( #151, #24 ) ;
#163 = CARTESIAN_POINT ( 'NONE',  ( 0.0000000000000000000, 0.0000000000000000000, 0.0000000000000000000 ) ) ;
#164 = PRODUCT ( 'Web Model 84484_48188', 'Web Model 84484_48188', '', ( #120 ) ) ;
#165 = ADVANCED_FACE ( 'NONE', ( #18 ), #79, .T. ) ;
#166 = PRODUCT_RELATED_PRODUCT_CATEGORY ( 'detail', '', ( #164 ) ) ;
#167 = DIRECTION ( 'NONE',  ( 1.000000000000000000, 0.0000000000000000000, 0.0000000000000000000 ) ) ;
#168 = ORIENTED_EDGE ( 'NONE', *, *, #72, .F. ) ;
#169 = CARTESIAN_POINT ( 'NONE',  ( 0.0000000000000000000, 0.0000000000000000000, 2.000000000000000000 ) ) ;
#170 = EDGE_LOOP ( 'NONE', ( #107, #122, #109, #175 ) ) ;
#171 = DESIGN_CONTEXT ( 'detailed design', #97, 'design' ) ;
#172 = APPLICATION_PROTOCOL_DEFINITION ( 'international standard', 'config_control_design', 1994, #58 ) ;
#173 = VECTOR ( 'NONE', #4, 1000.000000000000000 ) ;
#174 = AXIS2_PLACEMENT_3D ( 'NONE', #41, #129, #84 ) ;
#175 = ORIENTED_EDGE ( 'NONE', *, *, #33, .F. ) ;
ENDSEC;
END-ISO-10303-21;
