ISO-10303-21;
HEADER;
FILE_DESCRIPTION (( 'STEP AP203' ),
    '1' );
FILE_NAME ('Web Model 68548.STEP',
    '2017-02-01T13:30:46',
    ( '' ),
    ( '' ),
    'SwSTEP 2.0',
    'SolidWorks 2016',
    '' );
FILE_SCHEMA (( 'CONFIG_CONTROL_DESIGN' ));
ENDSEC;

DATA;
#1 = CARTESIAN_POINT ( 'NONE',  ( 0.0000000000000000000, 0.0000000000000000000, 0.0000000000000000000 ) ) ;
#2 = VERTEX_POINT ( 'NONE', #311 ) ;
#3 = VECTOR ( 'NONE', #21, 1000.000000000000000 ) ;
#4 = MANIFOLD_SOLID_BREP ( 'Extrude1', #211 ) ;
#5 = EDGE_LOOP ( 'NONE', ( #20, #10, #213, #77 ) ) ;
#6 = PRODUCT ( 'Web Model 68548', 'Web Model 68548', '', ( #247 ) ) ;
#7 = FACE_OUTER_BOUND ( 'NONE', #145, .T. ) ;
#8 = COORDINATED_UNIVERSAL_TIME_OFFSET ( 5, 0, .BEHIND. ) ;
#9 = AXIS2_PLACEMENT_3D ( 'NONE', #294, #68, #137 ) ;
#10 = ORIENTED_EDGE ( 'NONE', *, *, #149, .F. ) ;
#11 = VERTEX_POINT ( 'NONE', #135 ) ;
#12 = VERTEX_POINT ( 'NONE', #133 ) ;
#13 = CC_DESIGN_PERSON_AND_ORGANIZATION_ASSIGNMENT ( #183, #319, ( #6 ) ) ;
#14 = EDGE_CURVE ( 'NONE', #2, #11, #237, .T. ) ;
#15 = DIRECTION ( 'NONE',  ( 0.0000000000000000000, -0.0000000000000000000, -1.000000000000000000 ) ) ;
#16 = DESIGN_CONTEXT ( 'detailed design', #69, 'design' ) ;
#17 = APPROVAL_DATE_TIME ( #128, #54 ) ;
#18 = DIRECTION ( 'NONE',  ( 0.0000000000000000000, 0.0000000000000000000, -1.000000000000000000 ) ) ;
#19 = DIRECTION ( 'NONE',  ( 0.7071067811865474600, 0.0000000000000000000, 0.7071067811865474600 ) ) ;
#20 = ORIENTED_EDGE ( 'NONE', *, *, #172, .T. ) ;
#21 = DIRECTION ( 'NONE',  ( 0.0000000000000000000, 0.0000000000000000000, -1.000000000000000000 ) ) ;
#22 = FACE_OUTER_BOUND ( 'NONE', #197, .T. ) ;
#23 = DIRECTION ( 'NONE',  ( 1.000000000000000000, 0.0000000000000000000, 0.0000000000000000000 ) ) ;
#24 = CARTESIAN_POINT ( 'NONE',  ( 0.0000000000000000000, 12.50000000000000000, -12.50000000000000000 ) ) ;
#25 =( LENGTH_UNIT ( ) NAMED_UNIT ( * ) SI_UNIT ( .MILLI., .METRE. ) );
#26 = DIRECTION ( 'NONE',  ( -0.7071067811865475700, 0.0000000000000000000, 0.7071067811865475700 ) ) ;
#27 = ORIENTED_EDGE ( 'NONE', *, *, #114, .F. ) ;
#28 = CARTESIAN_POINT ( 'NONE',  ( 0.0000000000000000000, 12.50000000000000000, -12.50000000000000000 ) ) ;
#29 = CARTESIAN_POINT ( 'NONE',  ( 0.0000000000000000000, 12.50000000000000000, 0.0000000000000000000 ) ) ;
#30 = AXIS2_PLACEMENT_3D ( 'NONE', #202, #51, #226 ) ;
#31 = PRODUCT_DEFINITION_FORMATION_WITH_SPECIFIED_SOURCE ( 'ANY', '', #6, .NOT_KNOWN. ) ;
#32 = AXIS2_PLACEMENT_3D ( 'NONE', #168, #298, #15 ) ;
#33 = ORIENTED_EDGE ( 'NONE', *, *, #14, .F. ) ;
#34 = ORIENTED_EDGE ( 'NONE', *, *, #283, .F. ) ;
#35 = CC_DESIGN_APPROVAL ( #54, ( #31 ) ) ;
#36 = PERSON_AND_ORGANIZATION ( #151, #62 ) ;
#37 = LINE ( 'NONE', #177, #107 ) ;
#38 = ADVANCED_FACE ( 'NONE', ( #22 ), #42, .F. ) ;
#39 = ORIENTED_EDGE ( 'NONE', *, *, #14, .T. ) ;
#40 = VECTOR ( 'NONE', #252, 1000.000000000000100 ) ;
#41 = DIRECTION ( 'NONE',  ( 1.000000000000000000, -0.0000000000000000000, 0.0000000000000000000 ) ) ;
#42 = PLANE ( 'NONE',  #82 ) ;
#43 = DIRECTION ( 'NONE',  ( -1.000000000000000000, -0.0000000000000000000, -0.0000000000000000000 ) ) ;
#44 = DIRECTION ( 'NONE',  ( 0.0000000000000000000, -0.0000000000000000000, -1.000000000000000000 ) ) ;
#45 = ORIENTED_EDGE ( 'NONE', *, *, #172, .F. ) ;
#46 = VECTOR ( 'NONE', #61, 1000.000000000000000 ) ;
#47 = APPROVAL_ROLE ( '' ) ;
#48 = CC_DESIGN_PERSON_AND_ORGANIZATION_ASSIGNMENT ( #203, #170, ( #31 ) ) ;
#49 = EDGE_CURVE ( 'NONE', #148, #84, #288, .T. ) ;
#50 = APPROVAL_ROLE ( '' ) ;
#51 = DIRECTION ( 'NONE',  ( 0.0000000000000000000, -1.000000000000000000, 0.0000000000000000000 ) ) ;
#52 = CARTESIAN_POINT ( 'NONE',  ( 0.0000000000000000000, 12.50000000000000000, 0.0000000000000000000 ) ) ;
#53 = FACE_OUTER_BOUND ( 'NONE', #58, .T. ) ;
#54 = APPROVAL ( #290, 'UNSPECIFIED' ) ;
#55 = ORIENTED_EDGE ( 'NONE', *, *, #233, .T. ) ;
#56 = ADVANCED_FACE ( 'NONE', ( #97 ), #109, .T. ) ;
#57 = VECTOR ( 'NONE', #244, 1000.000000000000000 ) ;
#58 = EDGE_LOOP ( 'NONE', ( #263, #143, #205 ) ) ;
#59 = CC_DESIGN_PERSON_AND_ORGANIZATION_ASSIGNMENT ( #99, #113, ( #31 ) ) ;
#60 = CARTESIAN_POINT ( 'NONE',  ( 0.0000000000000000000, 12.50000000000000000, 0.0000000000000000000 ) ) ;
#61 = DIRECTION ( 'NONE',  ( 0.0000000000000000000, 0.0000000000000000000, -1.000000000000000000 ) ) ;
#62 = ORGANIZATION ( 'UNSPECIFIED', 'UNSPECIFIED', '' ) ;
#63 = DIRECTION ( 'NONE',  ( -0.0000000000000000000, -0.0000000000000000000, 1.000000000000000000 ) ) ;
#64 = ORIENTED_EDGE ( 'NONE', *, *, #283, .T. ) ;
#65 = CARTESIAN_POINT ( 'NONE',  ( 0.0000000000000000000, 0.0000000000000000000, 0.0000000000000000000 ) ) ;
#66 = CARTESIAN_POINT ( 'NONE',  ( 12.50000000000000000, 12.50000000000000000, -12.50000000000000000 ) ) ;
#67 = LINE ( 'NONE', #286, #309 ) ;
#68 = DIRECTION ( 'NONE',  ( 0.0000000000000000000, 0.0000000000000000000, 1.000000000000000000 ) ) ;
#69 = APPLICATION_CONTEXT ( 'configuration controlled 3d designs of mechanical parts and assemblies' ) ;
#70 = DATE_AND_TIME ( #312, #147 ) ;
#71 = ORIENTED_EDGE ( 'NONE', *, *, #104, .F. ) ;
#72 = DIRECTION ( 'NONE',  ( 0.7071067811865474600, 0.0000000000000000000, 0.7071067811865474600 ) ) ;
#73 =( NAMED_UNIT ( * ) SI_UNIT ( $, .STERADIAN. ) SOLID_ANGLE_UNIT ( ) );
#74 = CARTESIAN_POINT ( 'NONE',  ( 0.0000000000000000000, 0.0000000000000000000, -12.50000000000000000 ) ) ;
#75 = DIRECTION ( 'NONE',  ( -0.0000000000000000000, -1.000000000000000000, -0.0000000000000000000 ) ) ;
#76 = LOCAL_TIME ( 8, 30, 46.00000000000000000, #8 ) ;
#77 = ORIENTED_EDGE ( 'NONE', *, *, #223, .T. ) ;
#78 = DIRECTION ( 'NONE',  ( -1.000000000000000000, 0.0000000000000000000, -0.0000000000000000000 ) ) ;
#79 = ORIENTED_EDGE ( 'NONE', *, *, #161, .T. ) ;
#80 = VECTOR ( 'NONE', #43, 1000.000000000000000 ) ;
#81 = PRODUCT_RELATED_PRODUCT_CATEGORY ( 'detail', '', ( #6 ) ) ;
#82 = AXIS2_PLACEMENT_3D ( 'NONE', #165, #26, #195 ) ;
#83 = EDGE_LOOP ( 'NONE', ( #79, #110, #129, #64 ) ) ;
#84 = VERTEX_POINT ( 'NONE', #66 ) ;
#85 = ADVANCED_FACE ( 'NONE', ( #227 ), #90, .F. ) ;
#86 = ORIENTED_EDGE ( 'NONE', *, *, #141, .T. ) ;
#87 = VECTOR ( 'NONE', #100, 1000.000000000000000 ) ;
#88 = CARTESIAN_POINT ( 'NONE',  ( 0.0000000000000000000, 12.50000000000000000, 0.0000000000000000000 ) ) ;
#89 = VERTEX_POINT ( 'NONE', #314 ) ;
#90 = PLANE ( 'NONE',  #201 ) ;
#91 = LINE ( 'NONE', #268, #280 ) ;
#92 = PLANE ( 'NONE',  #219 ) ;
#93 = DIRECTION ( 'NONE',  ( 0.7071067811865475700, 0.0000000000000000000, -0.7071067811865475700 ) ) ;
#94 = CARTESIAN_POINT ( 'NONE',  ( 0.0000000000000000000, 12.50000000000000000, -12.49999999999999600 ) ) ;
#95 = PERSON_AND_ORGANIZATION_ROLE ( 'creator' ) ;
#96 = EDGE_LOOP ( 'NONE', ( #45, #71, #176 ) ) ;
#97 = FACE_OUTER_BOUND ( 'NONE', #191, .T. ) ;
#98 = SECURITY_CLASSIFICATION_LEVEL ( 'unclassified' ) ;
#99 = PERSON_AND_ORGANIZATION ( #151, #62 ) ;
#100 = DIRECTION ( 'NONE',  ( -0.0000000000000000000, -0.0000000000000000000, 1.000000000000000000 ) ) ;
#101 = ORIENTED_EDGE ( 'NONE', *, *, #49, .F. ) ;
#102 = VERTEX_POINT ( 'NONE', #74 ) ;
#103 = FACE_OUTER_BOUND ( 'NONE', #126, .T. ) ;
#104 = EDGE_CURVE ( 'NONE', #246, #89, #221, .T. ) ;
#105 = COORDINATED_UNIVERSAL_TIME_OFFSET ( 5, 0, .BEHIND. ) ;
#106 = ADVANCED_FACE ( 'NONE', ( #103 ), #272, .F. ) ;
#107 = VECTOR ( 'NONE', #255, 1000.000000000000000 ) ;
#108 = CARTESIAN_POINT ( 'NONE',  ( 0.0000000000000000000, 12.50000000000000000, -12.49999999999999600 ) ) ;
#109 = PLANE ( 'NONE',  #125 ) ;
#110 = ORIENTED_EDGE ( 'NONE', *, *, #184, .F. ) ;
#111 = APPLICATION_PROTOCOL_DEFINITION ( 'international standard', 'config_control_design', 1994, #69 ) ;
#112 = LINE ( 'NONE', #65, #278 ) ;
#113 = PERSON_AND_ORGANIZATION_ROLE ( 'design_supplier' ) ;
#114 = EDGE_CURVE ( 'NONE', #84, #285, #277, .T. ) ;
#115 = APPROVAL_PERSON_ORGANIZATION ( #284, #160, #47 ) ;
#116 = APPROVAL_STATUS ( 'not_yet_approved' ) ;
#117 = PLANE ( 'NONE',  #32 ) ;
#118 = DATE_AND_TIME ( #196, #224 ) ;
#119 = ORIENTED_EDGE ( 'NONE', *, *, #266, .T. ) ;
#120 = LINE ( 'NONE', #194, #87 ) ;
#121 = SHAPE_DEFINITION_REPRESENTATION ( #258, #166 ) ;
#122 = ORIENTED_EDGE ( 'NONE', *, *, #274, .F. ) ;
#123 = LINE ( 'NONE', #28, #185 ) ;
#124 = AXIS2_PLACEMENT_3D ( 'NONE', #52, #228, #78 ) ;
#125 = AXIS2_PLACEMENT_3D ( 'NONE', #287, #190, #44 ) ;
#126 = EDGE_LOOP ( 'NONE', ( #308, #34, #27, #86 ) ) ;
#127 = VECTOR ( 'NONE', #174, 1000.000000000000000 ) ;
#128 = DATE_AND_TIME ( #303, #131 ) ;
#129 = ORIENTED_EDGE ( 'NONE', *, *, #318, .F. ) ;
#130 = CARTESIAN_POINT ( 'NONE',  ( 12.50000000000000000, 12.50000000000000000, 0.0000000000000000000 ) ) ;
#131 = LOCAL_TIME ( 8, 30, 46.00000000000000000, #267 ) ;
#132 = CARTESIAN_POINT ( 'NONE',  ( 12.50000000000000000, 12.50000000000000000, -12.50000000000000000 ) ) ;
#133 = CARTESIAN_POINT ( 'NONE',  ( 12.49999999999999600, 12.50000000000000000, 0.0000000000000000000 ) ) ;
#134 = DIRECTION ( 'NONE',  ( -0.7071067811865474600, -0.0000000000000000000, -0.7071067811865474600 ) ) ;
#135 = CARTESIAN_POINT ( 'NONE',  ( 12.50000000000000000, 0.0000000000000000000, -12.50000000000000000 ) ) ;
#136 = PERSON_AND_ORGANIZATION_ROLE ( 'classification_officer' ) ;
#137 = DIRECTION ( 'NONE',  ( 1.000000000000000000, 0.0000000000000000000, 0.0000000000000000000 ) ) ;
#138 = LINE ( 'NONE', #132, #57 ) ;
#139 = CARTESIAN_POINT ( 'NONE',  ( 0.0000000000000000000, 12.50000000000000000, -12.50000000000000000 ) ) ;
#140 = DIRECTION ( 'NONE',  ( 1.000000000000000000, 0.0000000000000000000, -0.0000000000000000000 ) ) ;
#141 = EDGE_CURVE ( 'NONE', #84, #11, #138, .T. ) ;
#142 = CARTESIAN_POINT ( 'NONE',  ( 12.50000000000000000, 12.50000000000000000, 0.0000000000000000000 ) ) ;
#143 = ORIENTED_EDGE ( 'NONE', *, *, #114, .T. ) ;
#144 = PLANE ( 'NONE',  #30 ) ;
#145 = EDGE_LOOP ( 'NONE', ( #181, #175, #122, #169 ) ) ;
#146 = FACE_OUTER_BOUND ( 'NONE', #96, .T. ) ;
#147 = LOCAL_TIME ( 8, 30, 46.00000000000000000, #105 ) ;
#148 = VERTEX_POINT ( 'NONE', #142 ) ;
#149 = EDGE_CURVE ( 'NONE', #306, #302, #234, .T. ) ;
#150 = VECTOR ( 'NONE', #19, 1000.000000000000100 ) ;
#151 = PERSON ( 'UNSPECIFIED', 'UNSPECIFIED', 'UNSPECIFIED', ('UNSPECIFIED'), ('UNSPECIFIED'), ('UNSPECIFIED') ) ;
#152 = DATE_AND_TIME ( #188, #76 ) ;
#153 = ORIENTED_EDGE ( 'NONE', *, *, #266, .F. ) ;
#154 = VECTOR ( 'NONE', #243, 1000.000000000000000 ) ;
#155 = ADVANCED_FACE ( 'NONE', ( #230 ), #92, .F. ) ;
#156 = ORIENTED_EDGE ( 'NONE', *, *, #184, .T. ) ;
#157 = LINE ( 'NONE', #108, #242 ) ;
#158 = APPROVAL_PERSON_ORGANIZATION ( #296, #54, #50 ) ;
#159 = PLANE ( 'NONE',  #167 ) ;
#160 = APPROVAL ( #116, 'UNSPECIFIED' ) ;
#161 = EDGE_CURVE ( 'NONE', #102, #2, #182, .T. ) ;
#162 = DIRECTION ( 'NONE',  ( 0.0000000000000000000, 0.0000000000000000000, 1.000000000000000000 ) ) ;
#163 = CARTESIAN_POINT ( 'NONE',  ( 12.50000000000000000, 0.0000000000000000000, 0.0000000000000000000 ) ) ;
#164 = DIRECTION ( 'NONE',  ( 0.0000000000000000000, -1.000000000000000000, 0.0000000000000000000 ) ) ;
#165 = CARTESIAN_POINT ( 'NONE',  ( 0.0000000000000000000, 12.50000000000000000, -12.49999999999999600 ) ) ;
#166 = ADVANCED_BREP_SHAPE_REPRESENTATION ( 'Web Model 68548', ( #4, #239, #9 ), #265 ) ;
#167 = AXIS2_PLACEMENT_3D ( 'NONE', #130, #310, #162 ) ;
#168 = CARTESIAN_POINT ( 'NONE',  ( 12.50000000000000000, 12.50000000000000000, -12.50000000000000000 ) ) ;
#169 = ORIENTED_EDGE ( 'NONE', *, *, #149, .T. ) ;
#170 = PERSON_AND_ORGANIZATION_ROLE ( 'creator' ) ;
#171 =( NAMED_UNIT ( * ) PLANE_ANGLE_UNIT ( ) SI_UNIT ( $, .RADIAN. ) );
#172 = EDGE_CURVE ( 'NONE', #89, #302, #112, .T. ) ;
#173 = DATE_AND_TIME ( #276, #262 ) ;
#174 = DIRECTION ( 'NONE',  ( -1.000000000000000000, -0.0000000000000000000, -0.0000000000000000000 ) ) ;
#175 = ORIENTED_EDGE ( 'NONE', *, *, #257, .F. ) ;
#176 = ORIENTED_EDGE ( 'NONE', *, *, #305, .F. ) ;
#177 = CARTESIAN_POINT ( 'NONE',  ( 0.0000000000000000000, 0.0000000000000000000, 0.0000000000000000000 ) ) ;
#178 = DIRECTION ( 'NONE',  ( -0.0000000000000000000, -1.000000000000000000, -0.0000000000000000000 ) ) ;
#179 = ORIENTED_EDGE ( 'NONE', *, *, #257, .T. ) ;
#180 = SECURITY_CLASSIFICATION ( '', '', #98 ) ;
#181 = ORIENTED_EDGE ( 'NONE', *, *, #305, .T. ) ;
#182 = LINE ( 'NONE', #240, #150 ) ;
#183 = PERSON_AND_ORGANIZATION ( #151, #62 ) ;
#184 = EDGE_CURVE ( 'NONE', #148, #2, #91, .T. ) ;
#185 = VECTOR ( 'NONE', #72, 1000.000000000000100 ) ;
#186 = PLANE ( 'NONE',  #124 ) ;
#187 = CARTESIAN_POINT ( 'NONE',  ( 12.50000000000000000, 12.50000000000000000, 0.0000000000000000000 ) ) ;
#188 = CALENDAR_DATE ( 2017, 1, 2 ) ;
#189 = DIRECTION ( 'NONE',  ( -0.0000000000000000000, -1.000000000000000000, -0.0000000000000000000 ) ) ;
#190 = DIRECTION ( 'NONE',  ( 0.0000000000000000000, -1.000000000000000000, 0.0000000000000000000 ) ) ;
#191 = EDGE_LOOP ( 'NONE', ( #33, #229, #236 ) ) ;
#192 = DIRECTION ( 'NONE',  ( -0.7071067811865474600, 0.0000000000000000000, -0.7071067811865474600 ) ) ;
#193 = VECTOR ( 'NONE', #75, 1000.000000000000000 ) ;
#194 = CARTESIAN_POINT ( 'NONE',  ( 0.0000000000000000000, 12.50000000000000000, 0.0000000000000000000 ) ) ;
#195 = DIRECTION ( 'NONE',  ( 0.7071067811865474600, 0.0000000000000000000, 0.7071067811865474600 ) ) ;
#196 = CALENDAR_DATE ( 2017, 1, 2 ) ;
#197 = EDGE_LOOP ( 'NONE', ( #291, #260, #153, #179 ) ) ;
#198 = VECTOR ( 'NONE', #23, 1000.000000000000000 ) ;
#199 = APPROVAL_ROLE ( '' ) ;
#200 = CC_DESIGN_APPROVAL ( #160, ( #180 ) ) ;
#201 = AXIS2_PLACEMENT_3D ( 'NONE', #24, #93, #192 ) ;
#202 = CARTESIAN_POINT ( 'NONE',  ( 0.0000000000000000000, 0.0000000000000000000, 0.0000000000000000000 ) ) ;
#203 = PERSON_AND_ORGANIZATION ( #151, #62 ) ;
#204 = FACE_OUTER_BOUND ( 'NONE', #281, .T. ) ;
#205 = ORIENTED_EDGE ( 'NONE', *, *, #318, .T. ) ;
#206 = CC_DESIGN_PERSON_AND_ORGANIZATION_ASSIGNMENT ( #36, #136, ( #180 ) ) ;
#207 = EDGE_CURVE ( 'NONE', #11, #102, #292, .T. ) ;
#208 = VECTOR ( 'NONE', #178, 1000.000000000000000 ) ;
#209 = APPROVAL_DATE_TIME ( #152, #160 ) ;
#210 = ADVANCED_FACE ( 'NONE', ( #204 ), #159, .F. ) ;
#211 = CLOSED_SHELL ( 'NONE', ( #261, #279, #38, #155, #307 ) ) ;
#212 = AXIS2_PLACEMENT_3D ( 'NONE', #293, #295, #140 ) ;
#213 = ORIENTED_EDGE ( 'NONE', *, *, #233, .F. ) ;
#214 = CARTESIAN_POINT ( 'NONE',  ( 0.0000000000000000000, 12.50000000000000000, 0.0000000000000000000 ) ) ;
#215 = CC_DESIGN_PERSON_AND_ORGANIZATION_ASSIGNMENT ( #231, #95, ( #282 ) ) ;
#216 = PLANE ( 'NONE',  #217 ) ;
#217 = AXIS2_PLACEMENT_3D ( 'NONE', #88, #41, #18 ) ;
#218 = ORIENTED_EDGE ( 'NONE', *, *, #274, .T. ) ;
#219 = AXIS2_PLACEMENT_3D ( 'NONE', #220, #164, #245 ) ;
#220 = CARTESIAN_POINT ( 'NONE',  ( 0.0000000000000000000, 12.50000000000000000, 0.0000000000000000000 ) ) ;
#221 = LINE ( 'NONE', #270, #40 ) ;
#222 = CC_DESIGN_DATE_AND_TIME_ASSIGNMENT ( #173, #271, ( #282 ) ) ;
#223 = EDGE_CURVE ( 'NONE', #225, #89, #248, .T. ) ;
#224 = LOCAL_TIME ( 8, 30, 46.00000000000000000, #250 ) ;
#225 = VERTEX_POINT ( 'NONE', #94 ) ;
#226 = DIRECTION ( 'NONE',  ( 0.0000000000000000000, -0.0000000000000000000, -1.000000000000000000 ) ) ;
#227 = FACE_OUTER_BOUND ( 'NONE', #83, .T. ) ;
#228 = DIRECTION ( 'NONE',  ( 0.0000000000000000000, 0.0000000000000000000, -1.000000000000000000 ) ) ;
#229 = ORIENTED_EDGE ( 'NONE', *, *, #161, .F. ) ;
#230 = FACE_OUTER_BOUND ( 'NONE', #301, .T. ) ;
#231 = PERSON_AND_ORGANIZATION ( #151, #62 ) ;
#232 = APPROVAL ( #251, 'UNSPECIFIED' ) ;
#233 = EDGE_CURVE ( 'NONE', #225, #306, #120, .T. ) ;
#234 = LINE ( 'NONE', #214, #154 ) ;
#235 = ADVANCED_FACE ( 'NONE', ( #53 ), #117, .F. ) ;
#236 = ORIENTED_EDGE ( 'NONE', *, *, #207, .F. ) ;
#237 = LINE ( 'NONE', #163, #3 ) ;
#238 = APPROVAL_DATE_TIME ( #70, #232 ) ;
#239 = MANIFOLD_SOLID_BREP ( 'Extrude2', #299 ) ;
#240 = CARTESIAN_POINT ( 'NONE',  ( 0.0000000000000000000, 0.0000000000000000000, -12.50000000000000000 ) ) ;
#241 = ORIENTED_EDGE ( 'NONE', *, *, #141, .F. ) ;
#242 = VECTOR ( 'NONE', #134, 1000.000000000000100 ) ;
#243 = DIRECTION ( 'NONE',  ( -0.0000000000000000000, -1.000000000000000000, -0.0000000000000000000 ) ) ;
#244 = DIRECTION ( 'NONE',  ( -0.0000000000000000000, -1.000000000000000000, -0.0000000000000000000 ) ) ;
#245 = DIRECTION ( 'NONE',  ( 0.0000000000000000000, -0.0000000000000000000, -1.000000000000000000 ) ) ;
#246 = VERTEX_POINT ( 'NONE', #275 ) ;
#247 = MECHANICAL_CONTEXT ( 'NONE', #297, 'mechanical' ) ;
#248 = LINE ( 'NONE', #313, #193 ) ;
#249 = APPLICATION_PROTOCOL_DEFINITION ( 'international standard', 'config_control_design', 1994, #297 ) ;
#250 = COORDINATED_UNIVERSAL_TIME_OFFSET ( 5, 0, .BEHIND. ) ;
#251 = APPROVAL_STATUS ( 'not_yet_approved' ) ;
#252 = DIRECTION ( 'NONE',  ( -0.7071067811865474600, -0.0000000000000000000, -0.7071067811865474600 ) ) ;
#253 = CC_DESIGN_APPROVAL ( #232, ( #282 ) ) ;
#254 = UNCERTAINTY_MEASURE_WITH_UNIT (LENGTH_MEASURE( 1.000000000000000100E-005 ), #25, 'distance_accuracy_value', 'NONE');
#255 = DIRECTION ( 'NONE',  ( 1.000000000000000000, 0.0000000000000000000, 0.0000000000000000000 ) ) ;
#256 = COORDINATED_UNIVERSAL_TIME_OFFSET ( 5, 0, .BEHIND. ) ;
#257 = EDGE_CURVE ( 'NONE', #12, #246, #67, .T. ) ;
#258 = PRODUCT_DEFINITION_SHAPE ( 'NONE', 'NONE',  #282 ) ;
#259 = PERSON_AND_ORGANIZATION ( #151, #62 ) ;
#260 = ORIENTED_EDGE ( 'NONE', *, *, #223, .F. ) ;
#261 = ADVANCED_FACE ( 'NONE', ( #315 ), #216, .F. ) ;
#262 = LOCAL_TIME ( 8, 30, 46.00000000000000000, #256 ) ;
#263 = ORIENTED_EDGE ( 'NONE', *, *, #49, .T. ) ;
#264 = LINE ( 'NONE', #60, #198 ) ;
#265 =( GEOMETRIC_REPRESENTATION_CONTEXT ( 3 ) GLOBAL_UNCERTAINTY_ASSIGNED_CONTEXT ( ( #254 ) ) GLOBAL_UNIT_ASSIGNED_CONTEXT ( ( #25, #171, #73 ) ) REPRESENTATION_CONTEXT ( 'NONE', 'WORKASPACE' ) );
#266 = EDGE_CURVE ( 'NONE', #12, #225, #157, .T. ) ;
#267 = COORDINATED_UNIVERSAL_TIME_OFFSET ( 5, 0, .BEHIND. ) ;
#268 = CARTESIAN_POINT ( 'NONE',  ( 12.50000000000000000, 12.50000000000000000, 0.0000000000000000000 ) ) ;
#269 = CARTESIAN_POINT ( 'NONE',  ( 0.0000000000000000000, 0.0000000000000000000, -12.50000000000000000 ) ) ;
#270 = CARTESIAN_POINT ( 'NONE',  ( 0.0000000000000000000, 0.0000000000000000000, -12.49999999999999600 ) ) ;
#271 = DATE_TIME_ROLE ( 'creation_date' ) ;
#272 = PLANE ( 'NONE',  #212 ) ;
#273 = LINE ( 'NONE', #300, #208 ) ;
#274 = EDGE_CURVE ( 'NONE', #306, #12, #264, .T. ) ;
#275 = CARTESIAN_POINT ( 'NONE',  ( 12.49999999999999600, 0.0000000000000000000, 0.0000000000000000000 ) ) ;
#276 = CALENDAR_DATE ( 2017, 1, 2 ) ;
#277 = LINE ( 'NONE', #139, #127 ) ;
#278 = VECTOR ( 'NONE', #63, 1000.000000000000000 ) ;
#279 = ADVANCED_FACE ( 'NONE', ( #7 ), #186, .F. ) ;
#280 = VECTOR ( 'NONE', #189, 1000.000000000000000 ) ;
#281 = EDGE_LOOP ( 'NONE', ( #39, #241, #101, #156 ) ) ;
#282 = PRODUCT_DEFINITION ( 'UNKNOWN', '', #31, #16 ) ;
#283 = EDGE_CURVE ( 'NONE', #285, #102, #273, .T. ) ;
#284 = PERSON_AND_ORGANIZATION ( #151, #62 ) ;
#285 = VERTEX_POINT ( 'NONE', #320 ) ;
#286 = CARTESIAN_POINT ( 'NONE',  ( 12.49999999999999600, 12.50000000000000000, 0.0000000000000000000 ) ) ;
#287 = CARTESIAN_POINT ( 'NONE',  ( 12.50000000000000000, 0.0000000000000000000, -12.50000000000000000 ) ) ;
#288 = LINE ( 'NONE', #187, #46 ) ;
#289 = DIRECTION ( 'NONE',  ( -0.0000000000000000000, -1.000000000000000000, -0.0000000000000000000 ) ) ;
#290 = APPROVAL_STATUS ( 'not_yet_approved' ) ;
#291 = ORIENTED_EDGE ( 'NONE', *, *, #104, .T. ) ;
#292 = LINE ( 'NONE', #269, #80 ) ;
#293 = CARTESIAN_POINT ( 'NONE',  ( 0.0000000000000000000, 12.50000000000000000, -12.50000000000000000 ) ) ;
#294 = CARTESIAN_POINT ( 'NONE',  ( 0.0000000000000000000, 0.0000000000000000000, 0.0000000000000000000 ) ) ;
#295 = DIRECTION ( 'NONE',  ( 0.0000000000000000000, 0.0000000000000000000, 1.000000000000000000 ) ) ;
#296 = PERSON_AND_ORGANIZATION ( #151, #62 ) ;
#297 = APPLICATION_CONTEXT ( 'configuration controlled 3d designs of mechanical parts and assemblies' ) ;
#298 = DIRECTION ( 'NONE',  ( 0.0000000000000000000, -1.000000000000000000, 0.0000000000000000000 ) ) ;
#299 = CLOSED_SHELL ( 'NONE', ( #210, #106, #85, #235, #56 ) ) ;
#300 = CARTESIAN_POINT ( 'NONE',  ( 0.0000000000000000000, 12.50000000000000000, -12.50000000000000000 ) ) ;
#301 = EDGE_LOOP ( 'NONE', ( #55, #218, #119 ) ) ;
#302 = VERTEX_POINT ( 'NONE', #1 ) ;
#303 = CALENDAR_DATE ( 2017, 1, 2 ) ;
#304 = CC_DESIGN_SECURITY_CLASSIFICATION ( #180, ( #31 ) ) ;
#305 = EDGE_CURVE ( 'NONE', #302, #246, #37, .T. ) ;
#306 = VERTEX_POINT ( 'NONE', #29 ) ;
#307 = ADVANCED_FACE ( 'NONE', ( #146 ), #144, .T. ) ;
#308 = ORIENTED_EDGE ( 'NONE', *, *, #207, .T. ) ;
#309 = VECTOR ( 'NONE', #289, 1000.000000000000000 ) ;
#310 = DIRECTION ( 'NONE',  ( -1.000000000000000000, 0.0000000000000000000, 0.0000000000000000000 ) ) ;
#311 = CARTESIAN_POINT ( 'NONE',  ( 12.50000000000000000, 0.0000000000000000000, 0.0000000000000000000 ) ) ;
#312 = CALENDAR_DATE ( 2017, 1, 2 ) ;
#313 = CARTESIAN_POINT ( 'NONE',  ( 0.0000000000000000000, 12.50000000000000000, -12.49999999999999600 ) ) ;
#314 = CARTESIAN_POINT ( 'NONE',  ( 0.0000000000000000000, 0.0000000000000000000, -12.49999999999999600 ) ) ;
#315 = FACE_OUTER_BOUND ( 'NONE', #5, .T. ) ;
#316 = DATE_TIME_ROLE ( 'classification_date' ) ;
#317 = CC_DESIGN_DATE_AND_TIME_ASSIGNMENT ( #118, #316, ( #180 ) ) ;
#318 = EDGE_CURVE ( 'NONE', #285, #148, #123, .T. ) ;
#319 = PERSON_AND_ORGANIZATION_ROLE ( 'design_owner' ) ;
#320 = CARTESIAN_POINT ( 'NONE',  ( 0.0000000000000000000, 12.50000000000000000, -12.50000000000000000 ) ) ;
#321 = APPROVAL_PERSON_ORGANIZATION ( #259, #232, #199 ) ;
ENDSEC;
END-ISO-10303-21;
