ISO-10303-21;
HEADER;
FILE_DESCRIPTION (( 'STEP AP203' ),
    '1' );
FILE_NAME ('Web Model 39238_39250.step',
    '2018-07-25T17:13:19',
    ( '' ),
    ( '' ),
    'SwSTEP 2.0',
    'SolidWorks 2016',
    '' );
FILE_SCHEMA (( 'CONFIG_CONTROL_DESIGN' ));
ENDSEC;

DATA;
#1 = SECURITY_CLASSIFICATION ( '', '', #155 ) ;
#2 = LINE ( 'NONE', #33, #61 ) ;
#3 = ORIENTED_EDGE ( 'NONE', *, *, #86, .F. ) ;
#4 = VERTEX_POINT ( 'NONE', #111 ) ;
#5 = AXIS2_PLACEMENT_3D ( 'NONE', #101, #119, #131 ) ;
#6 = CARTESIAN_POINT ( 'NONE',  ( -17.50000000000000400, 0.0000000000000000000, -0.5000000000000000000 ) ) ;
#7 = COORDINATED_UNIVERSAL_TIME_OFFSET ( 5, 0, .BEHIND. ) ;
#8 = CC_DESIGN_PERSON_AND_ORGANIZATION_ASSIGNMENT ( #31, #169, ( #121 ) ) ;
#9 = ADVANCED_FACE ( 'NONE', ( #97 ), #34, .T. ) ;
#10 = PERSON_AND_ORGANIZATION_ROLE ( 'design_owner' ) ;
#11 = APPLICATION_CONTEXT ( 'configuration controlled 3d designs of mechanical parts and assemblies' ) ;
#12 = MECHANICAL_CONTEXT ( 'NONE', #11, 'mechanical' ) ;
#13 = DATE_TIME_ROLE ( 'creation_date' ) ;
#14 = COORDINATED_UNIVERSAL_TIME_OFFSET ( 5, 0, .BEHIND. ) ;
#15 = EDGE_LOOP ( 'NONE', ( #151, #95, #44, #3 ) ) ;
#16 = PERSON_AND_ORGANIZATION ( #161, #22 ) ;
#17 = CLOSED_SHELL ( 'NONE', ( #68, #158, #9, #102 ) ) ;
#18 = COORDINATED_UNIVERSAL_TIME_OFFSET ( 5, 0, .BEHIND. ) ;
#19 = EDGE_LOOP ( 'NONE', ( #143, #55 ) ) ;
#20 = CALENDAR_DATE ( 2018, 25, 7 ) ;
#21 = CYLINDRICAL_SURFACE ( 'NONE', #107, 17.50000000000000400 ) ;
#22 = ORGANIZATION ( 'UNSPECIFIED', 'UNSPECIFIED', '' ) ;
#23 = EDGE_CURVE ( 'NONE', #4, #71, #69, .T. ) ;
#24 = PERSON_AND_ORGANIZATION ( #161, #22 ) ;
#25 = VECTOR ( 'NONE', #112, 1000.000000000000000 ) ;
#26 =( LENGTH_UNIT ( ) NAMED_UNIT ( * ) SI_UNIT ( .MILLI., .METRE. ) );
#27 = FACE_OUTER_BOUND ( 'NONE', #15, .T. ) ;
#28 = PRODUCT_DEFINITION_SHAPE ( 'NONE', 'NONE',  #49 ) ;
#29 = CC_DESIGN_SECURITY_CLASSIFICATION ( #1, ( #121 ) ) ;
#30 = AXIS2_PLACEMENT_3D ( 'NONE', #144, #51, #37 ) ;
#31 = PERSON_AND_ORGANIZATION ( #161, #22 ) ;
#32 = VERTEX_POINT ( 'NONE', #154 ) ;
#33 = CARTESIAN_POINT ( 'NONE',  ( -17.50000000000000400, 0.0000000000000000000, 0.5000000000000000000 ) ) ;
#34 = PLANE ( 'NONE',  #59 ) ;
#35 = ORIENTED_EDGE ( 'NONE', *, *, #86, .T. ) ;
#36 = MANIFOLD_SOLID_BREP ( 'Boss-Extrude1', #17 ) ;
#37 = DIRECTION ( 'NONE',  ( 1.000000000000000000, 0.0000000000000000000, 0.0000000000000000000 ) ) ;
#38 = DIRECTION ( 'NONE',  ( 0.0000000000000000000, 0.0000000000000000000, 1.000000000000000000 ) ) ;
#39 = PERSON_AND_ORGANIZATION_ROLE ( 'creator' ) ;
#40 = EDGE_LOOP ( 'NONE', ( #163, #120, #35, #80 ) ) ;
#41 = CC_DESIGN_APPROVAL ( #48, ( #121 ) ) ;
#42 = APPROVAL_STATUS ( 'not_yet_approved' ) ;
#43 = AXIS2_PLACEMENT_3D ( 'NONE', #140, #165, #65 ) ;
#44 = ORIENTED_EDGE ( 'NONE', *, *, #23, .T. ) ;
#45 = AXIS2_PLACEMENT_3D ( 'NONE', #117, #56, #170 ) ;
#46 = PRODUCT ( 'Web Model 39238_39250', 'Web Model 39238_39250', '', ( #12 ) ) ;
#47 = LOCAL_TIME ( 13, 13, 19.00000000000000000, #138 ) ;
#48 = APPROVAL ( #147, 'UNSPECIFIED' ) ;
#49 = PRODUCT_DEFINITION ( 'UNKNOWN', '', #121, #100 ) ;
#50 = LOCAL_TIME ( 13, 13, 19.00000000000000000, #127 ) ;
#51 = DIRECTION ( 'NONE',  ( 0.0000000000000000000, 0.0000000000000000000, 1.000000000000000000 ) ) ;
#52 = APPLICATION_PROTOCOL_DEFINITION ( 'international standard', 'config_control_design', 1994, #11 ) ;
#53 = APPROVAL_DATE_TIME ( #58, #54 ) ;
#54 = APPROVAL ( #42, 'UNSPECIFIED' ) ;
#55 = ORIENTED_EDGE ( 'NONE', *, *, #60, .T. ) ;
#56 = DIRECTION ( 'NONE',  ( 0.0000000000000000000, 0.0000000000000000000, 1.000000000000000000 ) ) ;
#57 = APPROVAL_DATE_TIME ( #110, #48 ) ;
#58 = DATE_AND_TIME ( #124, #50 ) ;
#59 = AXIS2_PLACEMENT_3D ( 'NONE', #141, #109, #96 ) ;
#60 = EDGE_CURVE ( 'NONE', #32, #85, #103, .T. ) ;
#61 = VECTOR ( 'NONE', #64, 1000.000000000000000 ) ;
#62 = CC_DESIGN_DATE_AND_TIME_ASSIGNMENT ( #172, #13, ( #49 ) ) ;
#63 = LOCAL_TIME ( 13, 13, 19.00000000000000000, #14 ) ;
#64 = DIRECTION ( 'NONE',  ( -0.0000000000000000000, -0.0000000000000000000, -1.000000000000000000 ) ) ;
#65 = DIRECTION ( 'NONE',  ( 1.000000000000000000, 0.0000000000000000000, -0.0000000000000000000 ) ) ;
#66 = CALENDAR_DATE ( 2018, 25, 7 ) ;
#67 = CARTESIAN_POINT ( 'NONE',  ( 0.0000000000000000000, 0.0000000000000000000, 0.5000000000000000000 ) ) ;
#68 = ADVANCED_FACE ( 'NONE', ( #27 ), #136, .T. ) ;
#69 = CIRCLE ( 'NONE', #30, 17.50000000000000400 ) ;
#70 = CC_DESIGN_APPROVAL ( #54, ( #49 ) ) ;
#71 = VERTEX_POINT ( 'NONE', #6 ) ;
#72 = AXIS2_PLACEMENT_3D ( 'NONE', #76, #142, #88 ) ;
#73 = DATE_AND_TIME ( #148, #87 ) ;
#74 = CARTESIAN_POINT ( 'NONE',  ( -17.50000000000000400, 0.0000000000000000000, 0.5000000000000000000 ) ) ;
#75 =( GEOMETRIC_REPRESENTATION_CONTEXT ( 3 ) GLOBAL_UNCERTAINTY_ASSIGNED_CONTEXT ( ( #105 ) ) GLOBAL_UNIT_ASSIGNED_CONTEXT ( ( #26, #146, #93 ) ) REPRESENTATION_CONTEXT ( 'NONE', 'WORKASPACE' ) );
#76 = CARTESIAN_POINT ( 'NONE',  ( 0.0000000000000000000, 0.0000000000000000000, 0.5000000000000000000 ) ) ;
#77 = APPROVAL_ROLE ( '' ) ;
#78 = PERSON_AND_ORGANIZATION_ROLE ( 'classification_officer' ) ;
#79 = APPROVAL_ROLE ( '' ) ;
#80 = ORIENTED_EDGE ( 'NONE', *, *, #171, .T. ) ;
#81 = CC_DESIGN_PERSON_AND_ORGANIZATION_ASSIGNMENT ( #89, #39, ( #49 ) ) ;
#82 = LINE ( 'NONE', #166, #25 ) ;
#83 = CC_DESIGN_PERSON_AND_ORGANIZATION_ASSIGNMENT ( #149, #104, ( #121 ) ) ;
#84 = APPROVAL_PERSON_ORGANIZATION ( #174, #173, #79 ) ;
#85 = VERTEX_POINT ( 'NONE', #74 ) ;
#86 = EDGE_CURVE ( 'NONE', #85, #71, #2, .T. ) ;
#87 = LOCAL_TIME ( 13, 13, 19.00000000000000000, #7 ) ;
#88 = DIRECTION ( 'NONE',  ( 1.000000000000000000, 0.0000000000000000000, 0.0000000000000000000 ) ) ;
#89 = PERSON_AND_ORGANIZATION ( #161, #22 ) ;
#90 = CC_DESIGN_PERSON_AND_ORGANIZATION_ASSIGNMENT ( #157, #10, ( #46 ) ) ;
#91 = DIRECTION ( 'NONE',  ( 1.000000000000000000, 0.0000000000000000000, 0.0000000000000000000 ) ) ;
#92 = APPLICATION_PROTOCOL_DEFINITION ( 'international standard', 'config_control_design', 1994, #115 ) ;
#93 =( NAMED_UNIT ( * ) SI_UNIT ( $, .STERADIAN. ) SOLID_ANGLE_UNIT ( ) );
#94 = AXIS2_PLACEMENT_3D ( 'NONE', #145, #38, #91 ) ;
#95 = ORIENTED_EDGE ( 'NONE', *, *, #139, .T. ) ;
#96 = DIRECTION ( 'NONE',  ( 1.000000000000000000, 0.0000000000000000000, -0.0000000000000000000 ) ) ;
#97 = FACE_OUTER_BOUND ( 'NONE', #19, .T. ) ;
#98 = DIRECTION ( 'NONE',  ( -1.000000000000000000, 0.0000000000000000000, 0.0000000000000000000 ) ) ;
#99 = APPROVAL_STATUS ( 'not_yet_approved' ) ;
#100 = DESIGN_CONTEXT ( 'detailed design', #115, 'design' ) ;
#101 = CARTESIAN_POINT ( 'NONE',  ( 0.0000000000000000000, 0.0000000000000000000, -0.5000000000000000000 ) ) ;
#102 = ADVANCED_FACE ( 'NONE', ( #106 ), #128, .F. ) ;
#103 = CIRCLE ( 'NONE', #72, 17.50000000000000400 ) ;
#104 = PERSON_AND_ORGANIZATION_ROLE ( 'creator' ) ;
#105 = UNCERTAINTY_MEASURE_WITH_UNIT (LENGTH_MEASURE( 1.000000000000000100E-005 ), #26, 'distance_accuracy_value', 'NONE');
#106 = FACE_OUTER_BOUND ( 'NONE', #153, .T. ) ;
#107 = AXIS2_PLACEMENT_3D ( 'NONE', #67, #156, #113 ) ;
#108 = CARTESIAN_POINT ( 'NONE',  ( 0.0000000000000000000, 0.0000000000000000000, 0.5000000000000000000 ) ) ;
#109 = DIRECTION ( 'NONE',  ( 0.0000000000000000000, 0.0000000000000000000, 1.000000000000000000 ) ) ;
#110 = DATE_AND_TIME ( #20, #152 ) ;
#111 = CARTESIAN_POINT ( 'NONE',  ( 17.50000000000000400, 2.143131898507868600E-015, -0.5000000000000000000 ) ) ;
#112 = DIRECTION ( 'NONE',  ( -0.0000000000000000000, -0.0000000000000000000, -1.000000000000000000 ) ) ;
#113 = DIRECTION ( 'NONE',  ( -1.000000000000000000, 0.0000000000000000000, 0.0000000000000000000 ) ) ;
#114 = CIRCLE ( 'NONE', #5, 17.50000000000000400 ) ;
#115 = APPLICATION_CONTEXT ( 'configuration controlled 3d designs of mechanical parts and assemblies' ) ;
#116 = CC_DESIGN_PERSON_AND_ORGANIZATION_ASSIGNMENT ( #24, #78, ( #1 ) ) ;
#117 = CARTESIAN_POINT ( 'NONE',  ( 0.0000000000000000000, 0.0000000000000000000, 0.0000000000000000000 ) ) ;
#118 = DATE_AND_TIME ( #164, #47 ) ;
#119 = DIRECTION ( 'NONE',  ( 0.0000000000000000000, 0.0000000000000000000, 1.000000000000000000 ) ) ;
#120 = ORIENTED_EDGE ( 'NONE', *, *, #123, .F. ) ;
#121 = PRODUCT_DEFINITION_FORMATION_WITH_SPECIFIED_SOURCE ( 'ANY', '', #46, .NOT_KNOWN. ) ;
#122 = CIRCLE ( 'NONE', #94, 17.50000000000000400 ) ;
#123 = EDGE_CURVE ( 'NONE', #85, #32, #122, .T. ) ;
#124 = CALENDAR_DATE ( 2018, 25, 7 ) ;
#125 = ADVANCED_BREP_SHAPE_REPRESENTATION ( 'Web Model 39238_39250', ( #36, #45 ), #75 ) ;
#126 = CC_DESIGN_DATE_AND_TIME_ASSIGNMENT ( #118, #132, ( #1 ) ) ;
#127 = COORDINATED_UNIVERSAL_TIME_OFFSET ( 5, 0, .BEHIND. ) ;
#128 = PLANE ( 'NONE',  #43 ) ;
#129 = CC_DESIGN_APPROVAL ( #173, ( #1 ) ) ;
#130 = FACE_OUTER_BOUND ( 'NONE', #40, .T. ) ;
#131 = DIRECTION ( 'NONE',  ( 1.000000000000000000, 0.0000000000000000000, 0.0000000000000000000 ) ) ;
#132 = DATE_TIME_ROLE ( 'classification_date' ) ;
#133 = PERSON_AND_ORGANIZATION ( #161, #22 ) ;
#134 = APPROVAL_ROLE ( '' ) ;
#135 = SHAPE_DEFINITION_REPRESENTATION ( #28, #125 ) ;
#136 = CYLINDRICAL_SURFACE ( 'NONE', #159, 17.50000000000000400 ) ;
#137 = APPROVAL_PERSON_ORGANIZATION ( #16, #54, #134 ) ;
#138 = COORDINATED_UNIVERSAL_TIME_OFFSET ( 5, 0, .BEHIND. ) ;
#139 = EDGE_CURVE ( 'NONE', #32, #4, #82, .T. ) ;
#140 = CARTESIAN_POINT ( 'NONE',  ( 0.0000000000000000000, 0.0000000000000000000, -0.5000000000000000000 ) ) ;
#141 = CARTESIAN_POINT ( 'NONE',  ( 0.0000000000000000000, 0.0000000000000000000, 0.5000000000000000000 ) ) ;
#142 = DIRECTION ( 'NONE',  ( 0.0000000000000000000, 0.0000000000000000000, 1.000000000000000000 ) ) ;
#143 = ORIENTED_EDGE ( 'NONE', *, *, #123, .T. ) ;
#144 = CARTESIAN_POINT ( 'NONE',  ( 0.0000000000000000000, 0.0000000000000000000, -0.5000000000000000000 ) ) ;
#145 = CARTESIAN_POINT ( 'NONE',  ( 0.0000000000000000000, 0.0000000000000000000, 0.5000000000000000000 ) ) ;
#146 =( NAMED_UNIT ( * ) PLANE_ANGLE_UNIT ( ) SI_UNIT ( $, .RADIAN. ) );
#147 = APPROVAL_STATUS ( 'not_yet_approved' ) ;
#148 = CALENDAR_DATE ( 2018, 25, 7 ) ;
#149 = PERSON_AND_ORGANIZATION ( #161, #22 ) ;
#150 = ORIENTED_EDGE ( 'NONE', *, *, #171, .F. ) ;
#151 = ORIENTED_EDGE ( 'NONE', *, *, #60, .F. ) ;
#152 = LOCAL_TIME ( 13, 13, 19.00000000000000000, #18 ) ;
#153 = EDGE_LOOP ( 'NONE', ( #150, #175 ) ) ;
#154 = CARTESIAN_POINT ( 'NONE',  ( 17.50000000000000400, 2.143131898507868600E-015, 0.5000000000000000000 ) ) ;
#155 = SECURITY_CLASSIFICATION_LEVEL ( 'unclassified' ) ;
#156 = DIRECTION ( 'NONE',  ( -0.0000000000000000000, -0.0000000000000000000, -1.000000000000000000 ) ) ;
#157 = PERSON_AND_ORGANIZATION ( #161, #22 ) ;
#158 = ADVANCED_FACE ( 'NONE', ( #130 ), #21, .T. ) ;
#159 = AXIS2_PLACEMENT_3D ( 'NONE', #108, #167, #98 ) ;
#160 = APPROVAL_DATE_TIME ( #73, #173 ) ;
#161 = PERSON ( 'UNSPECIFIED', 'UNSPECIFIED', 'UNSPECIFIED', ('UNSPECIFIED'), ('UNSPECIFIED'), ('UNSPECIFIED') ) ;
#162 = APPROVAL_PERSON_ORGANIZATION ( #133, #48, #77 ) ;
#163 = ORIENTED_EDGE ( 'NONE', *, *, #139, .F. ) ;
#164 = CALENDAR_DATE ( 2018, 25, 7 ) ;
#165 = DIRECTION ( 'NONE',  ( 0.0000000000000000000, 0.0000000000000000000, 1.000000000000000000 ) ) ;
#166 = CARTESIAN_POINT ( 'NONE',  ( 17.50000000000000400, 2.143131898507868600E-015, 0.5000000000000000000 ) ) ;
#167 = DIRECTION ( 'NONE',  ( -0.0000000000000000000, -0.0000000000000000000, -1.000000000000000000 ) ) ;
#168 = PRODUCT_RELATED_PRODUCT_CATEGORY ( 'detail', '', ( #46 ) ) ;
#169 = PERSON_AND_ORGANIZATION_ROLE ( 'design_supplier' ) ;
#170 = DIRECTION ( 'NONE',  ( 1.000000000000000000, 0.0000000000000000000, 0.0000000000000000000 ) ) ;
#171 = EDGE_CURVE ( 'NONE', #71, #4, #114, .T. ) ;
#172 = DATE_AND_TIME ( #66, #63 ) ;
#173 = APPROVAL ( #99, 'UNSPECIFIED' ) ;
#174 = PERSON_AND_ORGANIZATION ( #161, #22 ) ;
#175 = ORIENTED_EDGE ( 'NONE', *, *, #23, .F. ) ;
ENDSEC;
END-ISO-10303-21;
