ISO-10303-21;
HEADER;
FILE_DESCRIPTION (( 'STEP AP203' ),
    '1' );
FILE_NAME ('Web Model 64085.STEP',
    '2017-01-31T19:03:19',
    ( '' ),
    ( '' ),
    'SwSTEP 2.0',
    'SolidWorks 2016',
    '' );
FILE_SCHEMA (( 'CONFIG_CONTROL_DESIGN' ));
ENDSEC;

DATA;
#1 = ADVANCED_FACE ( 'NONE', ( #11 ), #208, .T. ) ;
#2 = VERTEX_POINT ( 'NONE', #115 ) ;
#3 = VERTEX_POINT ( 'NONE', #12 ) ;
#4 = EDGE_CURVE ( 'NONE', #191, #166, #77, .T. ) ;
#5 = APPLICATION_CONTEXT ( 'configuration controlled 3d designs of mechanical parts and assemblies' ) ;
#6 = EDGE_LOOP ( 'NONE', ( #220, #14, #83, #110 ) ) ;
#7 = ADVANCED_BREP_SHAPE_REPRESENTATION ( 'Web Model 64085', ( #81, #9 ), #107 ) ;
#8 = VERTEX_POINT ( 'NONE', #29 ) ;
#9 = AXIS2_PLACEMENT_3D ( 'NONE', #125, #152, #222 ) ;
#10 = CARTESIAN_POINT ( 'NONE',  ( -6.250000000000000000, -6.250000000000000000, 2.000000000000000000 ) ) ;
#11 = FACE_OUTER_BOUND ( 'NONE', #92, .T. ) ;
#12 = CARTESIAN_POINT ( 'NONE',  ( -6.250000000000000000, -6.250000000000000000, 2.000000000000000000 ) ) ;
#13 = VECTOR ( 'NONE', #160, 1000.000000000000000 ) ;
#14 = ORIENTED_EDGE ( 'NONE', *, *, #162, .F. ) ;
#15 = DIRECTION ( 'NONE',  ( -0.0000000000000000000, -1.000000000000000000, -0.0000000000000000000 ) ) ;
#16 = ORIENTED_EDGE ( 'NONE', *, *, #74, .T. ) ;
#17 = CARTESIAN_POINT ( 'NONE',  ( -6.250000000000000000, -6.250000000000000000, 2.000000000000000000 ) ) ;
#18 = PRODUCT ( 'Web Model 64085', 'Web Model 64085', '', ( #91 ) ) ;
#19 = APPLICATION_PROTOCOL_DEFINITION ( 'international standard', 'config_control_design', 1994, #5 ) ;
#20 = DIRECTION ( 'NONE',  ( 0.0000000000000000000, 0.0000000000000000000, -1.000000000000000000 ) ) ;
#21 = EDGE_CURVE ( 'NONE', #191, #3, #230, .T. ) ;
#22 = CARTESIAN_POINT ( 'NONE',  ( -6.250000000000000000, 6.250000000000000000, 2.000000000000000000 ) ) ;
#23 = COORDINATED_UNIVERSAL_TIME_OFFSET ( 5, 0, .BEHIND. ) ;
#24 = VECTOR ( 'NONE', #189, 1000.000000000000000 ) ;
#25 = CARTESIAN_POINT ( 'NONE',  ( 6.250000000000000000, -6.250000000000000000, 0.0000000000000000000 ) ) ;
#26 = LINE ( 'NONE', #84, #24 ) ;
#27 = DESIGN_CONTEXT ( 'detailed design', #5, 'design' ) ;
#28 = DATE_AND_TIME ( #87, #103 ) ;
#29 = CARTESIAN_POINT ( 'NONE',  ( 6.250000000000000000, 6.250000000000000000, 2.000000000000000000 ) ) ;
#30 = CLOSED_SHELL ( 'NONE', ( #187, #201, #150, #71, #204, #1 ) ) ;
#31 = PLANE ( 'NONE',  #133 ) ;
#32 = LINE ( 'NONE', #141, #221 ) ;
#33 = CC_DESIGN_APPROVAL ( #68, ( #172 ) ) ;
#34 = DIRECTION ( 'NONE',  ( 0.0000000000000000000, 1.000000000000000000, 0.0000000000000000000 ) ) ;
#35 = UNCERTAINTY_MEASURE_WITH_UNIT (LENGTH_MEASURE( 1.000000000000000100E-005 ), #60, 'distance_accuracy_value', 'NONE');
#36 = PRODUCT_DEFINITION_SHAPE ( 'NONE', 'NONE',  #59 ) ;
#37 = DATE_AND_TIME ( #51, #72 ) ;
#38 = VECTOR ( 'NONE', #137, 1000.000000000000000 ) ;
#39 = CC_DESIGN_PERSON_AND_ORGANIZATION_ASSIGNMENT ( #146, #219, ( #18 ) ) ;
#40 = VECTOR ( 'NONE', #159, 1000.000000000000000 ) ;
#41 = EDGE_LOOP ( 'NONE', ( #139, #114, #124, #183 ) ) ;
#42 = APPROVAL_STATUS ( 'not_yet_approved' ) ;
#43 = APPROVAL ( #62, 'UNSPECIFIED' ) ;
#44 = FACE_OUTER_BOUND ( 'NONE', #41, .T. ) ;
#45 = SECURITY_CLASSIFICATION_LEVEL ( 'unclassified' ) ;
#46 = ORIENTED_EDGE ( 'NONE', *, *, #128, .T. ) ;
#47 = DIRECTION ( 'NONE',  ( 1.000000000000000000, 0.0000000000000000000, 0.0000000000000000000 ) ) ;
#48 = DATE_TIME_ROLE ( 'classification_date' ) ;
#49 = EDGE_CURVE ( 'NONE', #3, #2, #131, .T. ) ;
#50 = DIRECTION ( 'NONE',  ( 0.0000000000000000000, 0.0000000000000000000, 1.000000000000000000 ) ) ;
#51 = CALENDAR_DATE ( 2017, 31, 1 ) ;
#52 = CARTESIAN_POINT ( 'NONE',  ( -6.250000000000000000, 6.250000000000000000, 2.000000000000000000 ) ) ;
#53 = ORIENTED_EDGE ( 'NONE', *, *, #49, .F. ) ;
#54 = COORDINATED_UNIVERSAL_TIME_OFFSET ( 5, 0, .BEHIND. ) ;
#55 = ORIENTED_EDGE ( 'NONE', *, *, #67, .F. ) ;
#56 = EDGE_CURVE ( 'NONE', #8, #191, #234, .T. ) ;
#57 = CC_DESIGN_DATE_AND_TIME_ASSIGNMENT ( #164, #78, ( #59 ) ) ;
#58 = DIRECTION ( 'NONE',  ( 1.000000000000000000, 0.0000000000000000000, 0.0000000000000000000 ) ) ;
#59 = PRODUCT_DEFINITION ( 'UNKNOWN', '', #172, #27 ) ;
#60 =( LENGTH_UNIT ( ) NAMED_UNIT ( * ) SI_UNIT ( .MILLI., .METRE. ) );
#61 = AXIS2_PLACEMENT_3D ( 'NONE', #17, #34, #153 ) ;
#62 = APPROVAL_STATUS ( 'not_yet_approved' ) ;
#63 = CARTESIAN_POINT ( 'NONE',  ( -6.250000000000000000, -6.250000000000000000, 2.000000000000000000 ) ) ;
#64 = EDGE_CURVE ( 'NONE', #80, #108, #237, .T. ) ;
#65 = PERSON_AND_ORGANIZATION ( #186, #168 ) ;
#66 = CC_DESIGN_APPROVAL ( #43, ( #59 ) ) ;
#67 = EDGE_CURVE ( 'NONE', #166, #2, #226, .T. ) ;
#68 = APPROVAL ( #42, 'UNSPECIFIED' ) ;
#69 = CC_DESIGN_PERSON_AND_ORGANIZATION_ASSIGNMENT ( #106, #213, ( #82 ) ) ;
#70 = PLANE ( 'NONE',  #94 ) ;
#71 = ADVANCED_FACE ( 'NONE', ( #233 ), #215, .F. ) ;
#72 = LOCAL_TIME ( 14, 3, 19.00000000000000000, #23 ) ;
#73 = LINE ( 'NONE', #109, #216 ) ;
#74 = EDGE_CURVE ( 'NONE', #8, #108, #79, .T. ) ;
#75 = CARTESIAN_POINT ( 'NONE',  ( -6.250000000000000000, -6.250000000000000000, 2.000000000000000000 ) ) ;
#76 = LOCAL_TIME ( 14, 3, 19.00000000000000000, #154 ) ;
#77 = LINE ( 'NONE', #229, #38 ) ;
#78 = DATE_TIME_ROLE ( 'creation_date' ) ;
#79 = LINE ( 'NONE', #235, #13 ) ;
#80 = VERTEX_POINT ( 'NONE', #105 ) ;
#81 = MANIFOLD_SOLID_BREP ( 'Extrude1', #30 ) ;
#82 = SECURITY_CLASSIFICATION ( '', '', #45 ) ;
#83 = ORIENTED_EDGE ( 'NONE', *, *, #223, .F. ) ;
#84 = CARTESIAN_POINT ( 'NONE',  ( 6.250000000000000000, -6.250000000000000000, 2.000000000000000000 ) ) ;
#85 = APPROVAL_DATE_TIME ( #37, #130 ) ;
#86 = CC_DESIGN_PERSON_AND_ORGANIZATION_ASSIGNMENT ( #205, #231, ( #172 ) ) ;
#87 = CALENDAR_DATE ( 2017, 31, 1 ) ;
#88 = VECTOR ( 'NONE', #227, 1000.000000000000000 ) ;
#89 = EDGE_LOOP ( 'NONE', ( #214, #53, #119, #206 ) ) ;
#90 = PLANE ( 'NONE',  #178 ) ;
#91 = MECHANICAL_CONTEXT ( 'NONE', #199, 'mechanical' ) ;
#92 = EDGE_LOOP ( 'NONE', ( #55, #136, #194, #147 ) ) ;
#93 = PERSON_AND_ORGANIZATION ( #186, #168 ) ;
#94 = AXIS2_PLACEMENT_3D ( 'NONE', #22, #127, #217 ) ;
#95 = ORIENTED_EDGE ( 'NONE', *, *, #4, .F. ) ;
#96 = EDGE_CURVE ( 'NONE', #2, #80, #32, .T. ) ;
#97 = CC_DESIGN_DATE_AND_TIME_ASSIGNMENT ( #209, #48, ( #82 ) ) ;
#98 = COORDINATED_UNIVERSAL_TIME_OFFSET ( 5, 0, .BEHIND. ) ;
#99 = FACE_OUTER_BOUND ( 'NONE', #232, .T. ) ;
#100 = DIRECTION ( 'NONE',  ( -1.000000000000000000, 0.0000000000000000000, -0.0000000000000000000 ) ) ;
#101 = ORIENTED_EDGE ( 'NONE', *, *, #56, .F. ) ;
#102 = APPROVAL_PERSON_ORGANIZATION ( #207, #68, #190 ) ;
#103 = LOCAL_TIME ( 14, 3, 19.00000000000000000, #113 ) ;
#104 = ORIENTED_EDGE ( 'NONE', *, *, #162, .T. ) ;
#105 = CARTESIAN_POINT ( 'NONE',  ( 6.250000000000000000, -6.250000000000000000, 0.0000000000000000000 ) ) ;
#106 = PERSON_AND_ORGANIZATION ( #186, #168 ) ;
#107 =( GEOMETRIC_REPRESENTATION_CONTEXT ( 3 ) GLOBAL_UNCERTAINTY_ASSIGNED_CONTEXT ( ( #35 ) ) GLOBAL_UNIT_ASSIGNED_CONTEXT ( ( #60, #145, #163 ) ) REPRESENTATION_CONTEXT ( 'NONE', 'WORKASPACE' ) );
#108 = VERTEX_POINT ( 'NONE', #181 ) ;
#109 = CARTESIAN_POINT ( 'NONE',  ( -6.250000000000000000, -6.250000000000000000, 2.000000000000000000 ) ) ;
#110 = ORIENTED_EDGE ( 'NONE', *, *, #49, .T. ) ;
#111 = CARTESIAN_POINT ( 'NONE',  ( -6.250000000000000000, 6.250000000000000000, 0.0000000000000000000 ) ) ;
#112 = PLANE ( 'NONE',  #61 ) ;
#113 = COORDINATED_UNIVERSAL_TIME_OFFSET ( 5, 0, .BEHIND. ) ;
#114 = ORIENTED_EDGE ( 'NONE', *, *, #223, .T. ) ;
#115 = CARTESIAN_POINT ( 'NONE',  ( -6.250000000000000000, -6.250000000000000000, 0.0000000000000000000 ) ) ;
#116 = CC_DESIGN_PERSON_AND_ORGANIZATION_ASSIGNMENT ( #65, #210, ( #172 ) ) ;
#117 = PERSON_AND_ORGANIZATION ( #186, #168 ) ;
#118 = VECTOR ( 'NONE', #179, 1000.000000000000000 ) ;
#119 = ORIENTED_EDGE ( 'NONE', *, *, #21, .F. ) ;
#120 = DIRECTION ( 'NONE',  ( 0.0000000000000000000, -0.0000000000000000000, -1.000000000000000000 ) ) ;
#121 = PERSON_AND_ORGANIZATION ( #186, #168 ) ;
#122 = CARTESIAN_POINT ( 'NONE',  ( 6.250000000000000000, -6.250000000000000000, 2.000000000000000000 ) ) ;
#123 = FACE_OUTER_BOUND ( 'NONE', #6, .T. ) ;
#124 = ORIENTED_EDGE ( 'NONE', *, *, #171, .T. ) ;
#125 = CARTESIAN_POINT ( 'NONE',  ( 0.0000000000000000000, 0.0000000000000000000, 0.0000000000000000000 ) ) ;
#126 = APPROVAL_PERSON_ORGANIZATION ( #121, #130, #143 ) ;
#127 = DIRECTION ( 'NONE',  ( 0.0000000000000000000, 0.0000000000000000000, -1.000000000000000000 ) ) ;
#128 = EDGE_CURVE ( 'NONE', #108, #166, #158, .T. ) ;
#129 = DIRECTION ( 'NONE',  ( 1.000000000000000000, 0.0000000000000000000, 0.0000000000000000000 ) ) ;
#130 = APPROVAL ( #184, 'UNSPECIFIED' ) ;
#131 = LINE ( 'NONE', #63, #118 ) ;
#132 = VECTOR ( 'NONE', #177, 1000.000000000000000 ) ;
#133 = AXIS2_PLACEMENT_3D ( 'NONE', #122, #142, #50 ) ;
#134 = CARTESIAN_POINT ( 'NONE',  ( -6.250000000000000000, -6.250000000000000000, 0.0000000000000000000 ) ) ;
#135 = ORIENTED_EDGE ( 'NONE', *, *, #171, .F. ) ;
#136 = ORIENTED_EDGE ( 'NONE', *, *, #128, .F. ) ;
#137 = DIRECTION ( 'NONE',  ( -0.0000000000000000000, -0.0000000000000000000, -1.000000000000000000 ) ) ;
#138 = CC_DESIGN_PERSON_AND_ORGANIZATION_ASSIGNMENT ( #117, #195, ( #59 ) ) ;
#139 = ORIENTED_EDGE ( 'NONE', *, *, #21, .T. ) ;
#140 = AXIS2_PLACEMENT_3D ( 'NONE', #52, #144, #120 ) ;
#141 = CARTESIAN_POINT ( 'NONE',  ( -6.250000000000000000, -6.250000000000000000, 0.0000000000000000000 ) ) ;
#142 = DIRECTION ( 'NONE',  ( -1.000000000000000000, 0.0000000000000000000, 0.0000000000000000000 ) ) ;
#143 = APPROVAL_ROLE ( '' ) ;
#144 = DIRECTION ( 'NONE',  ( 0.0000000000000000000, -1.000000000000000000, 0.0000000000000000000 ) ) ;
#145 =( NAMED_UNIT ( * ) PLANE_ANGLE_UNIT ( ) SI_UNIT ( $, .RADIAN. ) );
#146 = PERSON_AND_ORGANIZATION ( #186, #168 ) ;
#147 = ORIENTED_EDGE ( 'NONE', *, *, #96, .F. ) ;
#148 = CARTESIAN_POINT ( 'NONE',  ( -6.250000000000000000, 6.250000000000000000, 2.000000000000000000 ) ) ;
#149 = CALENDAR_DATE ( 2017, 31, 1 ) ;
#150 = ADVANCED_FACE ( 'NONE', ( #99 ), #31, .F. ) ;
#151 = SHAPE_DEFINITION_REPRESENTATION ( #36, #7 ) ;
#152 = DIRECTION ( 'NONE',  ( 0.0000000000000000000, 0.0000000000000000000, 1.000000000000000000 ) ) ;
#153 = DIRECTION ( 'NONE',  ( 0.0000000000000000000, -0.0000000000000000000, 1.000000000000000000 ) ) ;
#154 = COORDINATED_UNIVERSAL_TIME_OFFSET ( 5, 0, .BEHIND. ) ;
#155 = VECTOR ( 'NONE', #188, 1000.000000000000000 ) ;
#156 = CALENDAR_DATE ( 2017, 31, 1 ) ;
#157 = CARTESIAN_POINT ( 'NONE',  ( -6.250000000000000000, 6.250000000000000000, 2.000000000000000000 ) ) ;
#158 = LINE ( 'NONE', #198, #40 ) ;
#159 = DIRECTION ( 'NONE',  ( -1.000000000000000000, -0.0000000000000000000, -0.0000000000000000000 ) ) ;
#160 = DIRECTION ( 'NONE',  ( -0.0000000000000000000, -0.0000000000000000000, -1.000000000000000000 ) ) ;
#161 = DATE_AND_TIME ( #149, #196 ) ;
#162 = EDGE_CURVE ( 'NONE', #203, #80, #173, .T. ) ;
#163 =( NAMED_UNIT ( * ) SI_UNIT ( $, .STERADIAN. ) SOLID_ANGLE_UNIT ( ) );
#164 = DATE_AND_TIME ( #218, #76 ) ;
#165 = APPROVAL_PERSON_ORGANIZATION ( #93, #43, #174 ) ;
#166 = VERTEX_POINT ( 'NONE', #111 ) ;
#167 = LOCAL_TIME ( 14, 3, 19.00000000000000000, #98 ) ;
#168 = ORGANIZATION ( 'UNSPECIFIED', 'UNSPECIFIED', '' ) ;
#169 = CARTESIAN_POINT ( 'NONE',  ( 6.250000000000000000, -6.250000000000000000, 2.000000000000000000 ) ) ;
#170 = VECTOR ( 'NONE', #175, 1000.000000000000000 ) ;
#171 = EDGE_CURVE ( 'NONE', #203, #8, #26, .T. ) ;
#172 = PRODUCT_DEFINITION_FORMATION_WITH_SPECIFIED_SOURCE ( 'ANY', '', #18, .NOT_KNOWN. ) ;
#173 = LINE ( 'NONE', #185, #155 ) ;
#174 = APPROVAL_ROLE ( '' ) ;
#175 = DIRECTION ( 'NONE',  ( -0.0000000000000000000, -1.000000000000000000, -0.0000000000000000000 ) ) ;
#176 = ORIENTED_EDGE ( 'NONE', *, *, #64, .T. ) ;
#177 = DIRECTION ( 'NONE',  ( -1.000000000000000000, -0.0000000000000000000, -0.0000000000000000000 ) ) ;
#178 = AXIS2_PLACEMENT_3D ( 'NONE', #75, #129, #20 ) ;
#179 = DIRECTION ( 'NONE',  ( -0.0000000000000000000, -0.0000000000000000000, -1.000000000000000000 ) ) ;
#180 = AXIS2_PLACEMENT_3D ( 'NONE', #228, #211, #100 ) ;
#181 = CARTESIAN_POINT ( 'NONE',  ( 6.250000000000000000, 6.250000000000000000, 0.0000000000000000000 ) ) ;
#182 = VECTOR ( 'NONE', #15, 1000.000000000000000 ) ;
#183 = ORIENTED_EDGE ( 'NONE', *, *, #56, .T. ) ;
#184 = APPROVAL_STATUS ( 'not_yet_approved' ) ;
#185 = CARTESIAN_POINT ( 'NONE',  ( 6.250000000000000000, -6.250000000000000000, 2.000000000000000000 ) ) ;
#186 = PERSON ( 'UNSPECIFIED', 'UNSPECIFIED', 'UNSPECIFIED', ('UNSPECIFIED'), ('UNSPECIFIED'), ('UNSPECIFIED') ) ;
#187 = ADVANCED_FACE ( 'NONE', ( #197 ), #90, .F. ) ;
#188 = DIRECTION ( 'NONE',  ( -0.0000000000000000000, -0.0000000000000000000, -1.000000000000000000 ) ) ;
#189 = DIRECTION ( 'NONE',  ( 0.0000000000000000000, 1.000000000000000000, 0.0000000000000000000 ) ) ;
#190 = APPROVAL_ROLE ( '' ) ;
#191 = VERTEX_POINT ( 'NONE', #148 ) ;
#192 = CC_DESIGN_APPROVAL ( #130, ( #82 ) ) ;
#193 = APPROVAL_DATE_TIME ( #161, #68 ) ;
#194 = ORIENTED_EDGE ( 'NONE', *, *, #64, .F. ) ;
#195 = PERSON_AND_ORGANIZATION_ROLE ( 'creator' ) ;
#196 = LOCAL_TIME ( 14, 3, 19.00000000000000000, #54 ) ;
#197 = FACE_OUTER_BOUND ( 'NONE', #89, .T. ) ;
#198 = CARTESIAN_POINT ( 'NONE',  ( -6.250000000000000000, 6.250000000000000000, 0.0000000000000000000 ) ) ;
#199 = APPLICATION_CONTEXT ( 'configuration controlled 3d designs of mechanical parts and assemblies' ) ;
#200 = EDGE_LOOP ( 'NONE', ( #46, #95, #101, #16 ) ) ;
#201 = ADVANCED_FACE ( 'NONE', ( #123 ), #112, .F. ) ;
#202 = PRODUCT_RELATED_PRODUCT_CATEGORY ( 'detail', '', ( #18 ) ) ;
#203 = VERTEX_POINT ( 'NONE', #169 ) ;
#204 = ADVANCED_FACE ( 'NONE', ( #44 ), #70, .F. ) ;
#205 = PERSON_AND_ORGANIZATION ( #186, #168 ) ;
#206 = ORIENTED_EDGE ( 'NONE', *, *, #4, .T. ) ;
#207 = PERSON_AND_ORGANIZATION ( #186, #168 ) ;
#208 = PLANE ( 'NONE',  #180 ) ;
#209 = DATE_AND_TIME ( #156, #167 ) ;
#210 = PERSON_AND_ORGANIZATION_ROLE ( 'creator' ) ;
#211 = DIRECTION ( 'NONE',  ( 0.0000000000000000000, 0.0000000000000000000, -1.000000000000000000 ) ) ;
#212 = ORIENTED_EDGE ( 'NONE', *, *, #74, .F. ) ;
#213 = PERSON_AND_ORGANIZATION_ROLE ( 'classification_officer' ) ;
#214 = ORIENTED_EDGE ( 'NONE', *, *, #67, .T. ) ;
#215 = PLANE ( 'NONE',  #140 ) ;
#216 = VECTOR ( 'NONE', #58, 1000.000000000000000 ) ;
#217 = DIRECTION ( 'NONE',  ( -1.000000000000000000, 0.0000000000000000000, -0.0000000000000000000 ) ) ;
#218 = CALENDAR_DATE ( 2017, 31, 1 ) ;
#219 = PERSON_AND_ORGANIZATION_ROLE ( 'design_owner' ) ;
#220 = ORIENTED_EDGE ( 'NONE', *, *, #96, .T. ) ;
#221 = VECTOR ( 'NONE', #47, 1000.000000000000000 ) ;
#222 = DIRECTION ( 'NONE',  ( 1.000000000000000000, 0.0000000000000000000, 0.0000000000000000000 ) ) ;
#223 = EDGE_CURVE ( 'NONE', #3, #203, #73, .T. ) ;
#224 = CC_DESIGN_SECURITY_CLASSIFICATION ( #82, ( #172 ) ) ;
#225 = APPROVAL_DATE_TIME ( #28, #43 ) ;
#226 = LINE ( 'NONE', #134, #182 ) ;
#227 = DIRECTION ( 'NONE',  ( 0.0000000000000000000, 1.000000000000000000, 0.0000000000000000000 ) ) ;
#228 = CARTESIAN_POINT ( 'NONE',  ( -6.250000000000000000, 6.250000000000000000, 0.0000000000000000000 ) ) ;
#229 = CARTESIAN_POINT ( 'NONE',  ( -6.250000000000000000, 6.250000000000000000, 2.000000000000000000 ) ) ;
#230 = LINE ( 'NONE', #10, #170 ) ;
#231 = PERSON_AND_ORGANIZATION_ROLE ( 'design_supplier' ) ;
#232 = EDGE_LOOP ( 'NONE', ( #176, #212, #135, #104 ) ) ;
#233 = FACE_OUTER_BOUND ( 'NONE', #200, .T. ) ;
#234 = LINE ( 'NONE', #157, #132 ) ;
#235 = CARTESIAN_POINT ( 'NONE',  ( 6.250000000000000000, 6.250000000000000000, 2.000000000000000000 ) ) ;
#236 = APPLICATION_PROTOCOL_DEFINITION ( 'international standard', 'config_control_design', 1994, #199 ) ;
#237 = LINE ( 'NONE', #25, #88 ) ;
ENDSEC;
END-ISO-10303-21;
