ISO-10303-21;
HEADER;
FILE_DESCRIPTION (( 'STEP AP203' ),
    '1' );
FILE_NAME ('Web Model 46702_46668.step',
    '2017-04-10T17:43:26',
    ( '' ),
    ( '' ),
    'SwSTEP 2.0',
    'SolidWorks 2016',
    '' );
FILE_SCHEMA (( 'CONFIG_CONTROL_DESIGN' ));
ENDSEC;

DATA;
#1 = SECURITY_CLASSIFICATION ( '', '', #200 ) ;
#2 = ORIENTED_EDGE ( 'NONE', *, *, #86, .F. ) ;
#3 = CARTESIAN_POINT ( 'NONE',  ( -12.50000000000000000, 18.99999999999999600, 3.000000000000000000 ) ) ;
#4 = CARTESIAN_POINT ( 'NONE',  ( 12.49999999999999800, 18.99999999999999600, 3.000000000000000000 ) ) ;
#5 = DIRECTION ( 'NONE',  ( 1.369518533665900100E-016, -1.000000000000000000, 0.0000000000000000000 ) ) ;
#6 = PERSON_AND_ORGANIZATION ( #69, #237 ) ;
#7 = DIRECTION ( 'NONE',  ( -1.000000000000000000, -0.0000000000000000000, -0.0000000000000000000 ) ) ;
#8 = LINE ( 'NONE', #29, #127 ) ;
#9 = APPROVAL_ROLE ( '' ) ;
#10 = ADVANCED_FACE ( 'NONE', ( #204 ), #157, .F. ) ;
#11 = DIRECTION ( 'NONE',  ( -0.0000000000000000000, 0.0000000000000000000, 1.000000000000000000 ) ) ;
#12 = LINE ( 'NONE', #182, #133 ) ;
#13 = CARTESIAN_POINT ( 'NONE',  ( -12.49999999999999600, -19.00000000000000400, 3.000000000000000000 ) ) ;
#14 = VECTOR ( 'NONE', #132, 1000.000000000000000 ) ;
#15 = ADVANCED_FACE ( 'NONE', ( #180 ), #36, .F. ) ;
#16 = CC_DESIGN_PERSON_AND_ORGANIZATION_ASSIGNMENT ( #19, #92, ( #1 ) ) ;
#17 = EDGE_LOOP ( 'NONE', ( #233, #75, #153, #146 ) ) ;
#18 = AXIS2_PLACEMENT_3D ( 'NONE', #64, #225, #98 ) ;
#19 = PERSON_AND_ORGANIZATION ( #69, #237 ) ;
#20 =( NAMED_UNIT ( * ) SI_UNIT ( $, .STERADIAN. ) SOLID_ANGLE_UNIT ( ) );
#21 = CALENDAR_DATE ( 2017, 10, 4 ) ;
#22 = EDGE_CURVE ( 'NONE', #228, #79, #101, .T. ) ;
#23 = PLANE ( 'NONE',  #231 ) ;
#24 = DIRECTION ( 'NONE',  ( 9.130123557772669600E-017, -1.000000000000000000, 0.0000000000000000000 ) ) ;
#25 = CC_DESIGN_DATE_AND_TIME_ASSIGNMENT ( #192, #184, ( #1 ) ) ;
#26 = ADVANCED_FACE ( 'NONE', ( #154 ), #39, .F. ) ;
#27 = DATE_AND_TIME ( #21, #220 ) ;
#28 = ADVANCED_FACE ( 'NONE', ( #115 ), #23, .F. ) ;
#29 = CARTESIAN_POINT ( 'NONE',  ( -12.49999999999999600, -19.00000000000000400, 3.000000000000000000 ) ) ;
#30 = DIRECTION ( 'NONE',  ( -0.0000000000000000000, -0.0000000000000000000, -1.000000000000000000 ) ) ;
#31 = VECTOR ( 'NONE', #137, 1000.000000000000000 ) ;
#32 =( GEOMETRIC_REPRESENTATION_CONTEXT ( 3 ) GLOBAL_UNCERTAINTY_ASSIGNED_CONTEXT ( ( #68 ) ) GLOBAL_UNIT_ASSIGNED_CONTEXT ( ( #209, #38, #20 ) ) REPRESENTATION_CONTEXT ( 'NONE', 'WORKASPACE' ) );
#33 = ADVANCED_FACE ( 'NONE', ( #134 ), #116, .T. ) ;
#34 = ADVANCED_FACE ( 'NONE', ( #80 ), #44, .F. ) ;
#35 = APPROVAL_PERSON_ORGANIZATION ( #40, #194, #224 ) ;
#36 = PLANE ( 'NONE',  #189 ) ;
#37 = DIRECTION ( 'NONE',  ( 1.000000000000000000, 9.130123557772669600E-017, -0.0000000000000000000 ) ) ;
#38 =( NAMED_UNIT ( * ) PLANE_ANGLE_UNIT ( ) SI_UNIT ( $, .RADIAN. ) );
#39 = PLANE ( 'NONE',  #212 ) ;
#40 = PERSON_AND_ORGANIZATION ( #69, #237 ) ;
#41 = CARTESIAN_POINT ( 'NONE',  ( 12.50000000000000400, -19.00000000000000400, 3.000000000000000000 ) ) ;
#42 = DATE_AND_TIME ( #126, #145 ) ;
#43 = APPROVAL ( #51, 'UNSPECIFIED' ) ;
#44 = PLANE ( 'NONE',  #52 ) ;
#45 = CARTESIAN_POINT ( 'NONE',  ( -12.49999999999999600, -19.00000000000000400, 0.0000000000000000000 ) ) ;
#46 = LINE ( 'NONE', #232, #82 ) ;
#47 = PERSON_AND_ORGANIZATION ( #69, #237 ) ;
#48 = CARTESIAN_POINT ( 'NONE',  ( -12.49999999999999600, -19.00000000000000400, 0.0000000000000000000 ) ) ;
#49 = DATE_AND_TIME ( #123, #77 ) ;
#50 = APPLICATION_CONTEXT ( 'configuration controlled 3d designs of mechanical parts and assemblies' ) ;
#51 = APPROVAL_STATUS ( 'not_yet_approved' ) ;
#52 = AXIS2_PLACEMENT_3D ( 'NONE', #128, #11, #207 ) ;
#53 = CARTESIAN_POINT ( 'NONE',  ( -12.50000000000000000, 18.99999999999999600, 3.000000000000000000 ) ) ;
#54 = PERSON_AND_ORGANIZATION ( #69, #237 ) ;
#55 = CARTESIAN_POINT ( 'NONE',  ( -12.50000000000000000, 18.99999999999999600, 0.0000000000000000000 ) ) ;
#56 = EDGE_LOOP ( 'NONE', ( #152, #176, #144, #139 ) ) ;
#57 = DIRECTION ( 'NONE',  ( 0.0000000000000000000, -0.0000000000000000000, -1.000000000000000000 ) ) ;
#58 = APPLICATION_PROTOCOL_DEFINITION ( 'international standard', 'config_control_design', 1994, #60 ) ;
#59 = EDGE_CURVE ( 'NONE', #79, #95, #46, .T. ) ;
#60 = APPLICATION_CONTEXT ( 'configuration controlled 3d designs of mechanical parts and assemblies' ) ;
#61 = APPROVAL_DATE_TIME ( #42, #142 ) ;
#62 = CALENDAR_DATE ( 2017, 10, 4 ) ;
#63 = COORDINATED_UNIVERSAL_TIME_OFFSET ( 5, 0, .BEHIND. ) ;
#64 = CARTESIAN_POINT ( 'NONE',  ( 12.50000000000000400, -19.00000000000000400, 3.000000000000000000 ) ) ;
#65 = DIRECTION ( 'NONE',  ( 0.0000000000000000000, -0.0000000000000000000, 1.000000000000000000 ) ) ;
#66 = CC_DESIGN_APPROVAL ( #43, ( #1 ) ) ;
#67 = CARTESIAN_POINT ( 'NONE',  ( 12.49999999999999800, 18.99999999999999600, 0.0000000000000000000 ) ) ;
#68 = UNCERTAINTY_MEASURE_WITH_UNIT (LENGTH_MEASURE( 1.000000000000000100E-005 ), #209, 'distance_accuracy_value', 'NONE');
#69 = PERSON ( 'UNSPECIFIED', 'UNSPECIFIED', 'UNSPECIFIED', ('UNSPECIFIED'), ('UNSPECIFIED'), ('UNSPECIFIED') ) ;
#70 = DATE_AND_TIME ( #62, #216 ) ;
#71 = PERSON_AND_ORGANIZATION_ROLE ( 'design_supplier' ) ;
#72 = CARTESIAN_POINT ( 'NONE',  ( -12.50000000000000000, 18.99999999999999600, 3.000000000000000000 ) ) ;
#73 = LINE ( 'NONE', #45, #81 ) ;
#74 = EDGE_CURVE ( 'NONE', #161, #218, #73, .T. ) ;
#75 = ORIENTED_EDGE ( 'NONE', *, *, #124, .T. ) ;
#76 = CC_DESIGN_SECURITY_CLASSIFICATION ( #1, ( #183 ) ) ;
#77 = LOCAL_TIME ( 13, 43, 26.00000000000000000, #140 ) ;
#78 = CARTESIAN_POINT ( 'NONE',  ( 12.49999999999999800, 18.99999999999999600, 3.000000000000000000 ) ) ;
#79 = VERTEX_POINT ( 'NONE', #193 ) ;
#80 = FACE_OUTER_BOUND ( 'NONE', #166, .T. ) ;
#81 = VECTOR ( 'NONE', #135, 1000.000000000000000 ) ;
#82 = VECTOR ( 'NONE', #30, 1000.000000000000000 ) ;
#83 = SHAPE_DEFINITION_REPRESENTATION ( #102, #109 ) ;
#84 = ORIENTED_EDGE ( 'NONE', *, *, #219, .F. ) ;
#85 = DIRECTION ( 'NONE',  ( -0.0000000000000000000, -0.0000000000000000000, -1.000000000000000000 ) ) ;
#86 = EDGE_CURVE ( 'NONE', #95, #196, #227, .T. ) ;
#87 = DIRECTION ( 'NONE',  ( -0.0000000000000000000, -0.0000000000000000000, -1.000000000000000000 ) ) ;
#88 = LINE ( 'NONE', #110, #113 ) ;
#89 = VERTEX_POINT ( 'NONE', #170 ) ;
#90 = PRODUCT_RELATED_PRODUCT_CATEGORY ( 'detail', '', ( #188 ) ) ;
#91 = CARTESIAN_POINT ( 'NONE',  ( 12.50000000000000400, -19.00000000000000400, 3.000000000000000000 ) ) ;
#92 = PERSON_AND_ORGANIZATION_ROLE ( 'classification_officer' ) ;
#93 = APPROVAL_STATUS ( 'not_yet_approved' ) ;
#94 = LINE ( 'NONE', #118, #14 ) ;
#95 = VERTEX_POINT ( 'NONE', #214 ) ;
#96 = DIRECTION ( 'NONE',  ( 1.000000000000000000, 0.0000000000000000000, 0.0000000000000000000 ) ) ;
#97 = APPLICATION_PROTOCOL_DEFINITION ( 'international standard', 'config_control_design', 1994, #50 ) ;
#98 = DIRECTION ( 'NONE',  ( 1.000000000000000000, 0.0000000000000000000, 0.0000000000000000000 ) ) ;
#99 = EDGE_CURVE ( 'NONE', #111, #89, #12, .T. ) ;
#100 = DIRECTION ( 'NONE',  ( -1.000000000000000000, -1.369518533665900100E-016, 0.0000000000000000000 ) ) ;
#101 = LINE ( 'NONE', #4, #185 ) ;
#102 = PRODUCT_DEFINITION_SHAPE ( 'NONE', 'NONE',  #131 ) ;
#103 = VECTOR ( 'NONE', #171, 1000.000000000000000 ) ;
#104 = APPROVAL_DATE_TIME ( #70, #194 ) ;
#105 = DIRECTION ( 'NONE',  ( 0.0000000000000000000, -1.000000000000000000, 0.0000000000000000000 ) ) ;
#106 = APPROVAL_PERSON_ORGANIZATION ( #6, #43, #9 ) ;
#107 = AXIS2_PLACEMENT_3D ( 'NONE', #175, #150, #143 ) ;
#108 = ORIENTED_EDGE ( 'NONE', *, *, #112, .F. ) ;
#109 = ADVANCED_BREP_SHAPE_REPRESENTATION ( 'Web Model 46702_46668', ( #179, #107 ), #32 ) ;
#110 = CARTESIAN_POINT ( 'NONE',  ( -12.49999999999999600, -19.00000000000000400, 3.000000000000000000 ) ) ;
#111 = VERTEX_POINT ( 'NONE', #181 ) ;
#112 = EDGE_CURVE ( 'NONE', #228, #218, #236, .T. ) ;
#113 = VECTOR ( 'NONE', #96, 1000.000000000000000 ) ;
#114 = ORIENTED_EDGE ( 'NONE', *, *, #124, .F. ) ;
#115 = FACE_OUTER_BOUND ( 'NONE', #190, .T. ) ;
#116 = PLANE ( 'NONE',  #18 ) ;
#117 = PERSON_AND_ORGANIZATION_ROLE ( 'creator' ) ;
#118 = CARTESIAN_POINT ( 'NONE',  ( -12.50000000000000000, 18.99999999999999600, 0.0000000000000000000 ) ) ;
#119 = CC_DESIGN_PERSON_AND_ORGANIZATION_ASSIGNMENT ( #195, #215, ( #188 ) ) ;
#120 = CARTESIAN_POINT ( 'NONE',  ( -12.50000000000000000, 18.99999999999999600, 3.000000000000000000 ) ) ;
#121 = LOCAL_TIME ( 13, 43, 26.00000000000000000, #165 ) ;
#122 = CLOSED_SHELL ( 'NONE', ( #15, #28, #26, #10, #33, #34 ) ) ;
#123 = CALENDAR_DATE ( 2017, 10, 4 ) ;
#124 = EDGE_CURVE ( 'NONE', #79, #111, #187, .T. ) ;
#125 = APPROVAL_DATE_TIME ( #49, #43 ) ;
#126 = CALENDAR_DATE ( 2017, 10, 4 ) ;
#127 = VECTOR ( 'NONE', #87, 1000.000000000000000 ) ;
#128 = CARTESIAN_POINT ( 'NONE',  ( 12.50000000000000400, -19.00000000000000400, 0.0000000000000000000 ) ) ;
#129 = ORIENTED_EDGE ( 'NONE', *, *, #74, .T. ) ;
#130 = MECHANICAL_CONTEXT ( 'NONE', #50, 'mechanical' ) ;
#131 = PRODUCT_DEFINITION ( 'UNKNOWN', '', #183, #148 ) ;
#132 = DIRECTION ( 'NONE',  ( 9.130123557772669600E-017, -1.000000000000000000, 0.0000000000000000000 ) ) ;
#133 = VECTOR ( 'NONE', #24, 1000.000000000000000 ) ;
#134 = FACE_OUTER_BOUND ( 'NONE', #17, .T. ) ;
#135 = DIRECTION ( 'NONE',  ( 1.000000000000000000, 0.0000000000000000000, 0.0000000000000000000 ) ) ;
#136 = EDGE_CURVE ( 'NONE', #111, #196, #198, .T. ) ;
#137 = DIRECTION ( 'NONE',  ( -0.0000000000000000000, -0.0000000000000000000, -1.000000000000000000 ) ) ;
#138 = CALENDAR_DATE ( 2017, 10, 4 ) ;
#139 = ORIENTED_EDGE ( 'NONE', *, *, #112, .T. ) ;
#140 = COORDINATED_UNIVERSAL_TIME_OFFSET ( 5, 0, .BEHIND. ) ;
#141 = COORDINATED_UNIVERSAL_TIME_OFFSET ( 5, 0, .BEHIND. ) ;
#142 = APPROVAL ( #93, 'UNSPECIFIED' ) ;
#143 = DIRECTION ( 'NONE',  ( 1.000000000000000000, 0.0000000000000000000, 0.0000000000000000000 ) ) ;
#144 = ORIENTED_EDGE ( 'NONE', *, *, #22, .F. ) ;
#145 = LOCAL_TIME ( 13, 43, 26.00000000000000000, #210 ) ;
#146 = ORIENTED_EDGE ( 'NONE', *, *, #202, .T. ) ;
#147 = ORIENTED_EDGE ( 'NONE', *, *, #162, .F. ) ;
#148 = DESIGN_CONTEXT ( 'detailed design', #60, 'design' ) ;
#149 = VECTOR ( 'NONE', #167, 1000.000000000000000 ) ;
#150 = DIRECTION ( 'NONE',  ( 0.0000000000000000000, 0.0000000000000000000, 1.000000000000000000 ) ) ;
#151 = VECTOR ( 'NONE', #7, 1000.000000000000000 ) ;
#152 = ORIENTED_EDGE ( 'NONE', *, *, #219, .T. ) ;
#153 = ORIENTED_EDGE ( 'NONE', *, *, #99, .T. ) ;
#154 = FACE_OUTER_BOUND ( 'NONE', #159, .T. ) ;
#155 = CC_DESIGN_APPROVAL ( #142, ( #131 ) ) ;
#156 = ORIENTED_EDGE ( 'NONE', *, *, #203, .T. ) ;
#157 = PLANE ( 'NONE',  #169 ) ;
#158 = DIRECTION ( 'NONE',  ( -9.130123557772669600E-017, 1.000000000000000000, 0.0000000000000000000 ) ) ;
#159 = EDGE_LOOP ( 'NONE', ( #160, #177, #226, #223 ) ) ;
#160 = ORIENTED_EDGE ( 'NONE', *, *, #162, .T. ) ;
#161 = VERTEX_POINT ( 'NONE', #48 ) ;
#162 = EDGE_CURVE ( 'NONE', #196, #161, #94, .T. ) ;
#163 = CC_DESIGN_PERSON_AND_ORGANIZATION_ASSIGNMENT ( #206, #117, ( #131 ) ) ;
#164 = LINE ( 'NONE', #67, #149 ) ;
#165 = COORDINATED_UNIVERSAL_TIME_OFFSET ( 5, 0, .BEHIND. ) ;
#166 = EDGE_LOOP ( 'NONE', ( #84, #174, #147, #2 ) ) ;
#167 = DIRECTION ( 'NONE',  ( -1.369518533665900300E-016, 1.000000000000000000, -0.0000000000000000000 ) ) ;
#168 = APPROVAL_PERSON_ORGANIZATION ( #197, #142, #221 ) ;
#169 = AXIS2_PLACEMENT_3D ( 'NONE', #13, #186, #65 ) ;
#170 = CARTESIAN_POINT ( 'NONE',  ( -12.49999999999999600, -19.00000000000000400, 3.000000000000000000 ) ) ;
#171 = DIRECTION ( 'NONE',  ( -1.000000000000000000, -0.0000000000000000000, -0.0000000000000000000 ) ) ;
#172 = CC_DESIGN_DATE_AND_TIME_ASSIGNMENT ( #27, #213, ( #131 ) ) ;
#173 = ORIENTED_EDGE ( 'NONE', *, *, #136, .F. ) ;
#174 = ORIENTED_EDGE ( 'NONE', *, *, #74, .F. ) ;
#175 = CARTESIAN_POINT ( 'NONE',  ( 0.0000000000000000000, 0.0000000000000000000, 0.0000000000000000000 ) ) ;
#176 = ORIENTED_EDGE ( 'NONE', *, *, #59, .F. ) ;
#177 = ORIENTED_EDGE ( 'NONE', *, *, #203, .F. ) ;
#178 = ORIENTED_EDGE ( 'NONE', *, *, #202, .F. ) ;
#179 = MANIFOLD_SOLID_BREP ( 'Extrude1', #122 ) ;
#180 = FACE_OUTER_BOUND ( 'NONE', #56, .T. ) ;
#181 = CARTESIAN_POINT ( 'NONE',  ( -12.50000000000000000, 18.99999999999999600, 3.000000000000000000 ) ) ;
#182 = CARTESIAN_POINT ( 'NONE',  ( -12.50000000000000000, 18.99999999999999600, 3.000000000000000000 ) ) ;
#183 = PRODUCT_DEFINITION_FORMATION_WITH_SPECIFIED_SOURCE ( 'ANY', '', #188, .NOT_KNOWN. ) ;
#184 = DATE_TIME_ROLE ( 'classification_date' ) ;
#185 = VECTOR ( 'NONE', #230, 1000.000000000000000 ) ;
#186 = DIRECTION ( 'NONE',  ( 0.0000000000000000000, 1.000000000000000000, 0.0000000000000000000 ) ) ;
#187 = LINE ( 'NONE', #72, #103 ) ;
#188 = PRODUCT ( 'Web Model 46702_46668', 'Web Model 46702_46668', '', ( #130 ) ) ;
#189 = AXIS2_PLACEMENT_3D ( 'NONE', #78, #100, #5 ) ;
#190 = EDGE_LOOP ( 'NONE', ( #217, #173, #114, #235 ) ) ;
#191 = CARTESIAN_POINT ( 'NONE',  ( 12.50000000000000400, -19.00000000000000400, 0.0000000000000000000 ) ) ;
#192 = DATE_AND_TIME ( #138, #121 ) ;
#193 = CARTESIAN_POINT ( 'NONE',  ( 12.49999999999999800, 18.99999999999999600, 3.000000000000000000 ) ) ;
#194 = APPROVAL ( #234, 'UNSPECIFIED' ) ;
#195 = PERSON_AND_ORGANIZATION ( #69, #237 ) ;
#196 = VERTEX_POINT ( 'NONE', #211 ) ;
#197 = PERSON_AND_ORGANIZATION ( #69, #237 ) ;
#198 = LINE ( 'NONE', #3, #31 ) ;
#199 = EDGE_LOOP ( 'NONE', ( #129, #108, #178, #156 ) ) ;
#200 = SECURITY_CLASSIFICATION_LEVEL ( 'unclassified' ) ;
#201 = VECTOR ( 'NONE', #85, 1000.000000000000000 ) ;
#202 = EDGE_CURVE ( 'NONE', #89, #228, #88, .T. ) ;
#203 = EDGE_CURVE ( 'NONE', #89, #161, #8, .T. ) ;
#204 = FACE_OUTER_BOUND ( 'NONE', #199, .T. ) ;
#205 = PERSON_AND_ORGANIZATION_ROLE ( 'creator' ) ;
#206 = PERSON_AND_ORGANIZATION ( #69, #237 ) ;
#207 = DIRECTION ( 'NONE',  ( 1.000000000000000000, 0.0000000000000000000, 0.0000000000000000000 ) ) ;
#208 = CC_DESIGN_APPROVAL ( #194, ( #183 ) ) ;
#209 =( LENGTH_UNIT ( ) NAMED_UNIT ( * ) SI_UNIT ( .MILLI., .METRE. ) );
#210 = COORDINATED_UNIVERSAL_TIME_OFFSET ( 5, 0, .BEHIND. ) ;
#211 = CARTESIAN_POINT ( 'NONE',  ( -12.50000000000000000, 18.99999999999999600, 0.0000000000000000000 ) ) ;
#212 = AXIS2_PLACEMENT_3D ( 'NONE', #53, #37, #158 ) ;
#213 = DATE_TIME_ROLE ( 'creation_date' ) ;
#214 = CARTESIAN_POINT ( 'NONE',  ( 12.49999999999999800, 18.99999999999999600, 0.0000000000000000000 ) ) ;
#215 = PERSON_AND_ORGANIZATION_ROLE ( 'design_owner' ) ;
#216 = LOCAL_TIME ( 13, 43, 26.00000000000000000, #63 ) ;
#217 = ORIENTED_EDGE ( 'NONE', *, *, #86, .T. ) ;
#218 = VERTEX_POINT ( 'NONE', #191 ) ;
#219 = EDGE_CURVE ( 'NONE', #218, #95, #164, .T. ) ;
#220 = LOCAL_TIME ( 13, 43, 26.00000000000000000, #141 ) ;
#221 = APPROVAL_ROLE ( '' ) ;
#222 = CC_DESIGN_PERSON_AND_ORGANIZATION_ASSIGNMENT ( #47, #205, ( #183 ) ) ;
#223 = ORIENTED_EDGE ( 'NONE', *, *, #136, .T. ) ;
#224 = APPROVAL_ROLE ( '' ) ;
#225 = DIRECTION ( 'NONE',  ( -0.0000000000000000000, 0.0000000000000000000, 1.000000000000000000 ) ) ;
#226 = ORIENTED_EDGE ( 'NONE', *, *, #99, .F. ) ;
#227 = LINE ( 'NONE', #55, #151 ) ;
#228 = VERTEX_POINT ( 'NONE', #41 ) ;
#229 = CC_DESIGN_PERSON_AND_ORGANIZATION_ASSIGNMENT ( #54, #71, ( #183 ) ) ;
#230 = DIRECTION ( 'NONE',  ( -1.369518533665900300E-016, 1.000000000000000000, -0.0000000000000000000 ) ) ;
#231 = AXIS2_PLACEMENT_3D ( 'NONE', #120, #105, #57 ) ;
#232 = CARTESIAN_POINT ( 'NONE',  ( 12.49999999999999800, 18.99999999999999600, 3.000000000000000000 ) ) ;
#233 = ORIENTED_EDGE ( 'NONE', *, *, #22, .T. ) ;
#234 = APPROVAL_STATUS ( 'not_yet_approved' ) ;
#235 = ORIENTED_EDGE ( 'NONE', *, *, #59, .T. ) ;
#236 = LINE ( 'NONE', #91, #201 ) ;
#237 = ORGANIZATION ( 'UNSPECIFIED', 'UNSPECIFIED', '' ) ;
ENDSEC;
END-ISO-10303-21;
