ISO-10303-21;
HEADER;
FILE_DESCRIPTION (( 'STEP AP203' ),
    '1' );
FILE_NAME ('ISP Wedged Parts_16815.step',
    '2021-01-07T19:42:47',
    ( '' ),
    ( '' ),
    'SwSTEP 2.0',
    'SolidWorks 2018',
    '' );
FILE_SCHEMA (( 'CONFIG_CONTROL_DESIGN' ));
ENDSEC;

DATA;
#1 = CARTESIAN_POINT ( 'NONE',  ( 25.39999999999999858, 3.110602869834276865E-15, 1.331157593789066951 ) ) ;
#2 = ORIENTED_EDGE ( 'NONE', *, *, #32, .T. ) ;
#3 = AXIS2_PLACEMENT_3D ( 'NONE', #31, #118, #170 ) ;
#4 = AXIS2_PLACEMENT_3D ( 'NONE', #50, #91, #116 ) ;
#5 = COORDINATED_UNIVERSAL_TIME_OFFSET ( 5, 0, .BEHIND. ) ;
#6 = DIRECTION ( 'NONE',  ( -1.000000000000000000, 0.0000000000000000000, 0.0000000000000000000 ) ) ;
#7 = CARTESIAN_POINT ( 'NONE',  ( 25.39999999999999858, 3.110602869834276865E-15, 5.000000000000000000 ) ) ;
#8 =( NAMED_UNIT ( * ) PLANE_ANGLE_UNIT ( ) SI_UNIT ( $, .RADIAN. ) );
#9 = CC_DESIGN_PERSON_AND_ORGANIZATION_ASSIGNMENT ( #142, #160, ( #90 ) ) ;
#10 = PERSON_AND_ORGANIZATION ( #53, #149 ) ;
#11 = FACE_OUTER_BOUND ( 'NONE', #72, .T. ) ;
#12 = DATE_TIME_ROLE ( 'classification_date' ) ;
#13 = LINE ( 'NONE', #169, #59 ) ;
#14 = ORIENTED_EDGE ( 'NONE', *, *, #151, .T. ) ;
#15 = CC_DESIGN_PERSON_AND_ORGANIZATION_ASSIGNMENT ( #153, #140, ( #117 ) ) ;
#16 = CARTESIAN_POINT ( 'NONE',  ( 25.39999999999999858, 3.110602869834276865E-15, 1.331157593789066951 ) ) ;
#17 = EDGE_LOOP ( 'NONE', ( #163, #80 ) ) ;
#18 = EDGE_CURVE ( 'NONE', #120, #168, #122, .T. ) ;
#19 = CARTESIAN_POINT ( 'NONE',  ( 0.0000000000000000000, 0.0000000000000000000, 5.000000000000000000 ) ) ;
#20 = PERSON_AND_ORGANIZATION ( #53, #149 ) ;
#21 = CARTESIAN_POINT ( 'NONE',  ( -25.39999999999999858, 50.80000000000001847, -1.331157593789067395 ) ) ;
#22 = DIRECTION ( 'NONE',  ( 0.0000000000000000000, -0.9986295347545742773, 0.05233595624293679166 ) ) ;
#23 = DIRECTION ( 'NONE',  ( 0.0000000000000000000, 0.0000000000000000000, 1.000000000000000000 ) ) ;
#24 = CARTESIAN_POINT ( 'NONE',  ( -25.39999999999999858, 0.0000000000000000000, 1.331157593789066951 ) ) ;
#25 = PERSON_AND_ORGANIZATION_ROLE ( 'design_owner' ) ;
#26 = ORIENTED_EDGE ( 'NONE', *, *, #151, .F. ) ;
#27 = CC_DESIGN_APPROVAL ( #106, ( #58 ) ) ;
#28 = COORDINATED_UNIVERSAL_TIME_OFFSET ( 5, 0, .BEHIND. ) ;
#29 = CARTESIAN_POINT ( 'NONE',  ( -25.39999999999999858, 0.0000000000000000000, 1.331157593789066951 ) ) ;
#30 = COORDINATED_UNIVERSAL_TIME_OFFSET ( 5, 0, .BEHIND. ) ;
#31 = CARTESIAN_POINT ( 'NONE',  ( 0.0000000000000000000, 0.0000000000000000000, 5.000000000000000000 ) ) ;
#32 = EDGE_CURVE ( 'NONE', #168, #120, #65, .T. ) ;
#33 = CARTESIAN_POINT ( 'NONE',  ( -25.39999999999999858, -25.39999999999999858, 2.662315187578133902 ) ) ;
#34 = ORIENTED_EDGE ( 'NONE', *, *, #127, .T. ) ;
#35 = DIRECTION ( 'NONE',  ( -0.0000000000000000000, -0.0000000000000000000, -1.000000000000000000 ) ) ;
#36 = APPLICATION_CONTEXT ( 'configuration controlled 3d designs of mechanical parts and assemblies' ) ;
#37 = CC_DESIGN_SECURITY_CLASSIFICATION ( #58, ( #117 ) ) ;
#38 = APPROVAL_DATE_TIME ( #138, #155 ) ;
#39 = AXIS2_PLACEMENT_3D ( 'NONE', #33, #157, #22 ) ;
#40 = FACE_OUTER_BOUND ( 'NONE', #17, .T. ) ;
#41 = CARTESIAN_POINT ( 'NONE',  ( -25.40000000000000924, -50.80000000000001847, 3.993472781367201296 ) ) ;
#42 = PRODUCT_RELATED_PRODUCT_CATEGORY ( 'detail', '', ( #110 ) ) ;
#43 = ADVANCED_FACE ( 'NONE', ( #11 ), #130, .T. ) ;
#44 = APPROVAL_DATE_TIME ( #144, #54 ) ;
#45 = MANIFOLD_SOLID_BREP ( 'Cut-Extrude1', #156 ) ;
#46 = ORIENTED_EDGE ( 'NONE', *, *, #82, .F. ) ;
#47 = APPLICATION_PROTOCOL_DEFINITION ( 'international standard', 'config_control_design', 1994, #36 ) ;
#48 =( GEOMETRIC_REPRESENTATION_CONTEXT ( 3 ) GLOBAL_UNCERTAINTY_ASSIGNED_CONTEXT ( ( #132 ) ) GLOBAL_UNIT_ASSIGNED_CONTEXT ( ( #77, #8, #107 ) ) REPRESENTATION_CONTEXT ( 'NONE', 'WORKASPACE' ) );
#49 = PRODUCT_DEFINITION_SHAPE ( 'NONE', 'NONE',  #90 ) ;
#50 = CARTESIAN_POINT ( 'NONE',  ( 0.0000000000000000000, 0.0000000000000000000, 5.000000000000000000 ) ) ;
#51 = MECHANICAL_CONTEXT ( 'NONE', #133, 'mechanical' ) ;
#52 = ORIENTED_EDGE ( 'NONE', *, *, #127, .F. ) ;
#53 = PERSON ( 'UNSPECIFIED', 'UNSPECIFIED', 'UNSPECIFIED', ('UNSPECIFIED'), ('UNSPECIFIED'), ('UNSPECIFIED') ) ;
#54 = APPROVAL ( #111, 'UNSPECIFIED' ) ;
#55 = ADVANCED_BREP_SHAPE_REPRESENTATION ( 'ISP Wedged Parts_16815', ( #45, #145 ), #48 ) ;
#56 = VERTEX_POINT ( 'NONE', #164 ) ;
#57 = PERSON_AND_ORGANIZATION ( #53, #149 ) ;
#58 = SECURITY_CLASSIFICATION ( '', '', #173 ) ;
#59 = VECTOR ( 'NONE', #35, 1000.000000000000000 ) ;
#60 = APPROVAL_PERSON_ORGANIZATION ( #66, #54, #150 ) ;
#61 = CC_DESIGN_APPROVAL ( #54, ( #117 ) ) ;
#62 = CYLINDRICAL_SURFACE ( 'NONE', #3, 25.39999999999999858 ) ;
#63 = APPROVAL_ROLE ( '' ) ;
#64 = CC_DESIGN_DATE_AND_TIME_ASSIGNMENT ( #172, #79, ( #90 ) ) ;
#65 =( BOUNDED_CURVE ( )  B_SPLINE_CURVE ( 3, ( #16, #125, #21, #158 ),
 .UNSPECIFIED., .F., .F. ) 
 B_SPLINE_CURVE_WITH_KNOTS ( ( 4, 4 ),
 ( 4.712388980384689674, 7.853981633974482790 ),
 .UNSPECIFIED. ) 
 CURVE ( )  GEOMETRIC_REPRESENTATION_ITEM ( )  RATIONAL_B_SPLINE_CURVE ( ( 1.000000000000000000, 0.3333333333333333703, 0.3333333333333333703, 1.000000000000000000 ) ) 
 REPRESENTATION_ITEM ( '' )  );
#66 = PERSON_AND_ORGANIZATION ( #53, #149 ) ;
#67 = CIRCLE ( 'NONE', #141, 25.39999999999999858 ) ;
#68 = CC_DESIGN_PERSON_AND_ORGANIZATION_ASSIGNMENT ( #10, #94, ( #58 ) ) ;
#69 = APPROVAL_STATUS ( 'not_yet_approved' ) ;
#70 = LOCAL_TIME ( 14, 42, 47.00000000000000000, #30 ) ;
#71 = CARTESIAN_POINT ( 'NONE',  ( 0.0000000000000000000, 0.0000000000000000000, 5.000000000000000000 ) ) ;
#72 = EDGE_LOOP ( 'NONE', ( #46, #14, #2, #143 ) ) ;
#73 = ADVANCED_FACE ( 'NONE', ( #40 ), #131, .F. ) ;
#74 = LOCAL_TIME ( 14, 42, 47.00000000000000000, #152 ) ;
#75 = CALENDAR_DATE ( 2021, 7, 1 ) ;
#76 = EDGE_LOOP ( 'NONE', ( #26, #52, #84, #86 ) ) ;
#77 =( LENGTH_UNIT ( ) NAMED_UNIT ( * ) SI_UNIT ( .MILLI., .METRE. ) );
#78 = DIRECTION ( 'NONE',  ( -0.0000000000000000000, -0.0000000000000000000, -1.000000000000000000 ) ) ;
#79 = DATE_TIME_ROLE ( 'creation_date' ) ;
#80 = ORIENTED_EDGE ( 'NONE', *, *, #32, .F. ) ;
#81 = APPROVAL_DATE_TIME ( #93, #106 ) ;
#82 = EDGE_CURVE ( 'NONE', #174, #56, #67, .T. ) ;
#83 = PERSON_AND_ORGANIZATION_ROLE ( 'design_supplier' ) ;
#84 = ORIENTED_EDGE ( 'NONE', *, *, #126, .T. ) ;
#85 = CC_DESIGN_PERSON_AND_ORGANIZATION_ASSIGNMENT ( #57, #25, ( #110 ) ) ;
#86 = ORIENTED_EDGE ( 'NONE', *, *, #18, .T. ) ;
#87 = FACE_OUTER_BOUND ( 'NONE', #76, .T. ) ;
#88 = CARTESIAN_POINT ( 'NONE',  ( 0.0000000000000000000, 0.0000000000000000000, 5.000000000000000000 ) ) ;
#89 = CC_DESIGN_APPROVAL ( #155, ( #90 ) ) ;
#90 = PRODUCT_DEFINITION ( 'UNKNOWN', '', #117, #102 ) ;
#91 = DIRECTION ( 'NONE',  ( 0.0000000000000000000, 0.0000000000000000000, 1.000000000000000000 ) ) ;
#92 = DIRECTION ( 'NONE',  ( 1.000000000000000000, 0.0000000000000000000, 0.0000000000000000000 ) ) ;
#93 = DATE_AND_TIME ( #114, #74 ) ;
#94 = PERSON_AND_ORGANIZATION_ROLE ( 'classification_officer' ) ;
#95 = CC_DESIGN_DATE_AND_TIME_ASSIGNMENT ( #154, #12, ( #58 ) ) ;
#96 = PERSON_AND_ORGANIZATION ( #53, #149 ) ;
#97 = VECTOR ( 'NONE', #78, 1000.000000000000000 ) ;
#98 = APPROVAL_PERSON_ORGANIZATION ( #20, #155, #63 ) ;
#99 = AXIS2_PLACEMENT_3D ( 'NONE', #71, #166, #6 ) ;
#100 = CIRCLE ( 'NONE', #4, 25.39999999999999858 ) ;
#101 = ADVANCED_FACE ( 'NONE', ( #135 ), #115, .T. ) ;
#102 = DESIGN_CONTEXT ( 'detailed design', #36, 'design' ) ;
#103 = CALENDAR_DATE ( 2021, 7, 1 ) ;
#104 = LINE ( 'NONE', #108, #97 ) ;
#105 = DIRECTION ( 'NONE',  ( 0.0000000000000000000, 0.0000000000000000000, 1.000000000000000000 ) ) ;
#106 = APPROVAL ( #69, 'UNSPECIFIED' ) ;
#107 =( NAMED_UNIT ( * ) SI_UNIT ( $, .STERADIAN. ) SOLID_ANGLE_UNIT ( ) );
#108 = CARTESIAN_POINT ( 'NONE',  ( -25.39999999999999858, 0.0000000000000000000, 5.000000000000000000 ) ) ;
#109 = CALENDAR_DATE ( 2021, 7, 1 ) ;
#110 = PRODUCT ( 'ISP Wedged Parts_16815', 'ISP Wedged Parts_16815', '', ( #51 ) ) ;
#111 = APPROVAL_STATUS ( 'not_yet_approved' ) ;
#112 = PERSON_AND_ORGANIZATION ( #53, #149 ) ;
#113 = LOCAL_TIME ( 14, 42, 47.00000000000000000, #28 ) ;
#114 = CALENDAR_DATE ( 2021, 7, 1 ) ;
#115 = PLANE ( 'NONE',  #139 ) ;
#116 = DIRECTION ( 'NONE',  ( 1.000000000000000000, 0.0000000000000000000, 0.0000000000000000000 ) ) ;
#117 = PRODUCT_DEFINITION_FORMATION_WITH_SPECIFIED_SOURCE ( 'ANY', '', #110, .NOT_KNOWN. ) ;
#118 = DIRECTION ( 'NONE',  ( -0.0000000000000000000, -0.0000000000000000000, -1.000000000000000000 ) ) ;
#119 = DIRECTION ( 'NONE',  ( 1.000000000000000000, 0.0000000000000000000, 0.0000000000000000000 ) ) ;
#120 = VERTEX_POINT ( 'NONE', #24 ) ;
#121 = APPROVAL_ROLE ( '' ) ;
#122 =( BOUNDED_CURVE ( )  B_SPLINE_CURVE ( 3, ( #29, #41, #162, #1 ),
 .UNSPECIFIED., .F., .F. ) 
 B_SPLINE_CURVE_WITH_KNOTS ( ( 4, 4 ),
 ( 1.570796326794896558, 4.712388980384689674 ),
 .UNSPECIFIED. ) 
 CURVE ( )  GEOMETRIC_REPRESENTATION_ITEM ( )  RATIONAL_B_SPLINE_CURVE ( ( 1.000000000000000000, 0.3333333333333333703, 0.3333333333333333703, 1.000000000000000000 ) ) 
 REPRESENTATION_ITEM ( '' )  );
#123 = ORIENTED_EDGE ( 'NONE', *, *, #82, .T. ) ;
#124 = EDGE_LOOP ( 'NONE', ( #34, #123 ) ) ;
#125 = CARTESIAN_POINT ( 'NONE',  ( 25.40000000000000924, 50.79999999999999716, -1.331157593789067173 ) ) ;
#126 = EDGE_CURVE ( 'NONE', #56, #120, #104, .T. ) ;
#127 = EDGE_CURVE ( 'NONE', #56, #174, #100, .T. ) ;
#128 = ADVANCED_FACE ( 'NONE', ( #87 ), #62, .T. ) ;
#129 = APPROVAL_PERSON_ORGANIZATION ( #96, #106, #121 ) ;
#130 = CYLINDRICAL_SURFACE ( 'NONE', #99, 25.39999999999999858 ) ;
#131 = PLANE ( 'NONE',  #39 ) ;
#132 = UNCERTAINTY_MEASURE_WITH_UNIT (LENGTH_MEASURE( 1.000000000000000082E-05 ), #77, 'distance_accuracy_value', 'NONE');
#133 = APPLICATION_CONTEXT ( 'configuration controlled 3d designs of mechanical parts and assemblies' ) ;
#134 = LOCAL_TIME ( 14, 42, 47.00000000000000000, #5 ) ;
#135 = FACE_OUTER_BOUND ( 'NONE', #124, .T. ) ;
#136 = DIRECTION ( 'NONE',  ( 0.0000000000000000000, 0.0000000000000000000, 1.000000000000000000 ) ) ;
#137 = CALENDAR_DATE ( 2021, 7, 1 ) ;
#138 = DATE_AND_TIME ( #109, #175 ) ;
#139 = AXIS2_PLACEMENT_3D ( 'NONE', #19, #136, #159 ) ;
#140 = PERSON_AND_ORGANIZATION_ROLE ( 'creator' ) ;
#141 = AXIS2_PLACEMENT_3D ( 'NONE', #88, #23, #92 ) ;
#142 = PERSON_AND_ORGANIZATION ( #53, #149 ) ;
#143 = ORIENTED_EDGE ( 'NONE', *, *, #126, .F. ) ;
#144 = DATE_AND_TIME ( #75, #113 ) ;
#145 = AXIS2_PLACEMENT_3D ( 'NONE', #146, #105, #119 ) ;
#146 = CARTESIAN_POINT ( 'NONE',  ( 0.0000000000000000000, 0.0000000000000000000, 0.0000000000000000000 ) ) ;
#147 = APPLICATION_PROTOCOL_DEFINITION ( 'international standard', 'config_control_design', 1994, #133 ) ;
#148 = APPROVAL_STATUS ( 'not_yet_approved' ) ;
#149 = ORGANIZATION ( 'UNSPECIFIED', 'UNSPECIFIED', '' ) ;
#150 = APPROVAL_ROLE ( '' ) ;
#151 = EDGE_CURVE ( 'NONE', #174, #168, #13, .T. ) ;
#152 = COORDINATED_UNIVERSAL_TIME_OFFSET ( 5, 0, .BEHIND. ) ;
#153 = PERSON_AND_ORGANIZATION ( #53, #149 ) ;
#154 = DATE_AND_TIME ( #137, #134 ) ;
#155 = APPROVAL ( #148, 'UNSPECIFIED' ) ;
#156 = CLOSED_SHELL ( 'NONE', ( #43, #128, #101, #73 ) ) ;
#157 = DIRECTION ( 'NONE',  ( 0.0000000000000000000, 0.05233595624293679166, 0.9986295347545742773 ) ) ;
#158 = CARTESIAN_POINT ( 'NONE',  ( -25.39999999999999858, 0.0000000000000000000, 1.331157593789066951 ) ) ;
#159 = DIRECTION ( 'NONE',  ( 1.000000000000000000, 0.0000000000000000000, -0.0000000000000000000 ) ) ;
#160 = PERSON_AND_ORGANIZATION_ROLE ( 'creator' ) ;
#161 = SHAPE_DEFINITION_REPRESENTATION ( #49, #55 ) ;
#162 = CARTESIAN_POINT ( 'NONE',  ( 25.39999999999998792, -50.80000000000001847, 3.993472781367201296 ) ) ;
#163 = ORIENTED_EDGE ( 'NONE', *, *, #18, .F. ) ;
#164 = CARTESIAN_POINT ( 'NONE',  ( -25.39999999999999858, 0.0000000000000000000, 5.000000000000000000 ) ) ;
#165 = COORDINATED_UNIVERSAL_TIME_OFFSET ( 5, 0, .BEHIND. ) ;
#166 = DIRECTION ( 'NONE',  ( -0.0000000000000000000, -0.0000000000000000000, -1.000000000000000000 ) ) ;
#167 = CC_DESIGN_PERSON_AND_ORGANIZATION_ASSIGNMENT ( #112, #83, ( #117 ) ) ;
#168 = VERTEX_POINT ( 'NONE', #171 ) ;
#169 = CARTESIAN_POINT ( 'NONE',  ( 25.39999999999999858, 3.110602869834276865E-15, 5.000000000000000000 ) ) ;
#170 = DIRECTION ( 'NONE',  ( -1.000000000000000000, 0.0000000000000000000, 0.0000000000000000000 ) ) ;
#171 = CARTESIAN_POINT ( 'NONE',  ( 25.39999999999999858, 3.110602869834276865E-15, 1.331157593789066951 ) ) ;
#172 = DATE_AND_TIME ( #103, #70 ) ;
#173 = SECURITY_CLASSIFICATION_LEVEL ( 'unclassified' ) ;
#174 = VERTEX_POINT ( 'NONE', #7 ) ;
#175 = LOCAL_TIME ( 14, 42, 47.00000000000000000, #165 ) ;
ENDSEC;
END-ISO-10303-21;
