ISO-10303-21;
HEADER;
FILE_DESCRIPTION (( 'STEP AP203' ),
    '1' );
FILE_NAME ('Web Model 19629_21355.step',
    '2022-03-25T17:32:41',
    ( '' ),
    ( '' ),
    'SwSTEP 2.0',
    'SolidWorks 2021',
    '' );
FILE_SCHEMA (( 'CONFIG_CONTROL_DESIGN' ));
ENDSEC;

DATA;
#1 = VECTOR ( 'NONE', #232, 1000.000000000000000 ) ;
#2 = VERTEX_POINT ( 'NONE', #36 ) ;
#3 = DIRECTION ( 'NONE',  ( -1.000000000000000000, -0.000000000000000000, -0.000000000000000000 ) ) ;
#4 = DATE_AND_TIME ( #112, #152 ) ;
#5 = APPROVAL_STATUS ( 'not_yet_approved' ) ;
#6 = AXIS2_PLACEMENT_3D ( 'NONE', #47, #227, #44 ) ;
#7 = SECURITY_CLASSIFICATION ( '', '', #41 ) ;
#8 = ORIENTED_EDGE ( 'NONE', *, *, #212, .F. ) ;
#9 = APPROVAL_DATE_TIME ( #96, #34 ) ;
#10 = VERTEX_POINT ( 'NONE', #37 ) ;
#11 = DIRECTION ( 'NONE',  ( -1.821231995776175725E-16, 1.000000000000000000, -0.000000000000000000 ) ) ;
#12 = FACE_OUTER_BOUND ( 'NONE', #131, .T. ) ;
#13 = CARTESIAN_POINT ( 'NONE',  ( 38.10000000000000853, -38.10000000000000853, 1.520000000000000018 ) ) ;
#14 = CC_DESIGN_PERSON_AND_ORGANIZATION_ASSIGNMENT ( #56, #116, ( #90 ) ) ;
#15 = CARTESIAN_POINT ( 'NONE',  ( -38.10000000000000853, 38.09999999999999432, 1.520000000000000018 ) ) ;
#16 = AXIS2_PLACEMENT_3D ( 'NONE', #136, #71, #143 ) ;
#17 = VECTOR ( 'NONE', #3, 1000.000000000000000 ) ;
#18 = APPROVAL ( #58, 'UNSPECIFIED' ) ;
#19 = EDGE_LOOP ( 'NONE', ( #76, #81, #24, #168 ) ) ;
#20 = ADVANCED_FACE ( 'NONE', ( #125 ), #110, .F. ) ;
#21 = PERSON_AND_ORGANIZATION ( #220, #140 ) ;
#22 = VERTEX_POINT ( 'NONE', #13 ) ;
#23 = APPLICATION_PROTOCOL_DEFINITION ( 'international standard', 'config_control_design', 1994, #25 ) ;
#24 = ORIENTED_EDGE ( 'NONE', *, *, #226, .F. ) ;
#25 = APPLICATION_CONTEXT ( 'configuration controlled 3d designs of mechanical parts and assemblies' ) ;
#26 = AXIS2_PLACEMENT_3D ( 'NONE', #188, #162, #235 ) ;
#27 = APPROVAL_ROLE ( '' ) ;
#28 = EDGE_CURVE ( 'NONE', #170, #78, #164, .T. ) ;
#29 = LINE ( 'NONE', #214, #1 ) ;
#30 = CC_DESIGN_SECURITY_CLASSIFICATION ( #7, ( #216 ) ) ;
#31 = DIRECTION ( 'NONE',  ( 0.000000000000000000, 1.000000000000000000, 0.000000000000000000 ) ) ;
#32 = PLANE ( 'NONE',  #184 ) ;
#33 = CARTESIAN_POINT ( 'NONE',  ( -38.09999999999999432, -38.10000000000000853, 0.000000000000000000 ) ) ;
#34 = APPROVAL ( #5, 'UNSPECIFIED' ) ;
#35 = CC_DESIGN_PERSON_AND_ORGANIZATION_ASSIGNMENT ( #79, #82, ( #208 ) ) ;
#36 = CARTESIAN_POINT ( 'NONE',  ( -38.10000000000000853, 38.09999999999999432, 0.000000000000000000 ) ) ;
#37 = CARTESIAN_POINT ( 'NONE',  ( -38.09999999999999432, -38.10000000000000853, 1.520000000000000018 ) ) ;
#38 = PERSON_AND_ORGANIZATION ( #220, #140 ) ;
#39 = ORIENTED_EDGE ( 'NONE', *, *, #72, .F. ) ;
#40 = EDGE_LOOP ( 'NONE', ( #57, #221, #39, #95 ) ) ;
#41 = SECURITY_CLASSIFICATION_LEVEL ( 'unclassified' ) ;
#42 = ORIENTED_EDGE ( 'NONE', *, *, #171, .T. ) ;
#43 = VECTOR ( 'NONE', #215, 1000.000000000000000 ) ;
#44 = DIRECTION ( 'NONE',  ( 1.000000000000000000, 0.000000000000000000, 0.000000000000000000 ) ) ;
#45 = ADVANCED_FACE ( 'NONE', ( #134 ), #119, .F. ) ;
#46 = LINE ( 'NONE', #33, #163 ) ;
#47 = CARTESIAN_POINT ( 'NONE',  ( 0.000000000000000000, 0.000000000000000000, 0.000000000000000000 ) ) ;
#48 = LOCAL_TIME ( 13, 32, 41.00000000000000000, #51 ) ;
#49 = DIRECTION ( 'NONE',  ( -1.821231995776175479E-16, 1.000000000000000000, 0.000000000000000000 ) ) ;
#50 = CC_DESIGN_APPROVAL ( #18, ( #208 ) ) ;
#51 = COORDINATED_UNIVERSAL_TIME_OFFSET ( 5, 0, .BEHIND. ) ;
#52 = CARTESIAN_POINT ( 'NONE',  ( -38.09999999999999432, -38.10000000000000853, 1.520000000000000018 ) ) ;
#53 = DESIGN_CONTEXT ( 'detailed design', #129, 'design' ) ;
#54 = ORIENTED_EDGE ( 'NONE', *, *, #72, .T. ) ;
#55 = ORIENTED_EDGE ( 'NONE', *, *, #108, .T. ) ;
#56 = PERSON_AND_ORGANIZATION ( #220, #140 ) ;
#57 = ORIENTED_EDGE ( 'NONE', *, *, #66, .T. ) ;
#58 = APPROVAL_STATUS ( 'not_yet_approved' ) ;
#59 = VERTEX_POINT ( 'NONE', #160 ) ;
#60 = PERSON_AND_ORGANIZATION ( #220, #140 ) ;
#61 =( GEOMETRIC_REPRESENTATION_CONTEXT ( 3 ) GLOBAL_UNCERTAINTY_ASSIGNED_CONTEXT ( ( #185 ) ) GLOBAL_UNIT_ASSIGNED_CONTEXT ( ( #63, #195, #132 ) ) REPRESENTATION_CONTEXT ( 'NONE', 'WORKASPACE' ) );
#62 = LINE ( 'NONE', #213, #17 ) ;
#63 =( LENGTH_UNIT ( ) NAMED_UNIT ( * ) SI_UNIT ( .MILLI., .METRE. ) );
#64 = DIRECTION ( 'NONE',  ( 1.000000000000000000, 0.000000000000000000, 0.000000000000000000 ) ) ;
#65 = LINE ( 'NONE', #138, #43 ) ;
#66 = EDGE_CURVE ( 'NONE', #59, #170, #46, .T. ) ;
#67 = APPROVAL_PERSON_ORGANIZATION ( #21, #18, #27 ) ;
#68 = CARTESIAN_POINT ( 'NONE',  ( 38.10000000000000853, -38.10000000000000853, 1.520000000000000018 ) ) ;
#69 = COORDINATED_UNIVERSAL_TIME_OFFSET ( 5, 0, .BEHIND. ) ;
#70 = CARTESIAN_POINT ( 'NONE',  ( 38.09999999999999432, 38.09999999999999432, 1.520000000000000018 ) ) ;
#71 = DIRECTION ( 'NONE',  ( -1.000000000000000000, -1.821231995776175479E-16, 0.000000000000000000 ) ) ;
#72 = EDGE_CURVE ( 'NONE', #10, #22, #179, .T. ) ;
#73 = ADVANCED_FACE ( 'NONE', ( #12 ), #100, .F. ) ;
#74 = VECTOR ( 'NONE', #117, 1000.000000000000000 ) ;
#75 = VECTOR ( 'NONE', #155, 1000.000000000000000 ) ;
#76 = ORIENTED_EDGE ( 'NONE', *, *, #28, .F. ) ;
#77 = FACE_OUTER_BOUND ( 'NONE', #223, .T. ) ;
#78 = VERTEX_POINT ( 'NONE', #103 ) ;
#79 = PERSON_AND_ORGANIZATION ( #220, #140 ) ;
#80 = APPROVAL_ROLE ( '' ) ;
#81 = ORIENTED_EDGE ( 'NONE', *, *, #66, .F. ) ;
#82 = PERSON_AND_ORGANIZATION_ROLE ( 'creator' ) ;
#83 = ORIENTED_EDGE ( 'NONE', *, *, #139, .T. ) ;
#84 = LINE ( 'NONE', #118, #75 ) ;
#85 = APPROVAL ( #165, 'UNSPECIFIED' ) ;
#86 = CARTESIAN_POINT ( 'NONE',  ( 38.09999999999999432, 38.09999999999999432, 0.000000000000000000 ) ) ;
#87 = DIRECTION ( 'NONE',  ( 1.000000000000000000, 1.821231995776175479E-16, -0.000000000000000000 ) ) ;
#88 = DIRECTION ( 'NONE',  ( 1.000000000000000000, 0.000000000000000000, 0.000000000000000000 ) ) ;
#89 = MANIFOLD_SOLID_BREP ( 'Boss-Extrude1', #123 ) ;
#90 = PRODUCT ( 'Web Model 19629_21355', 'Web Model 19629_21355', '', ( #111 ) ) ;
#91 = ORIENTED_EDGE ( 'NONE', *, *, #113, .T. ) ;
#92 = VECTOR ( 'NONE', #11, 1000.000000000000000 ) ;
#93 = ORIENTED_EDGE ( 'NONE', *, *, #231, .F. ) ;
#94 = APPROVAL_DATE_TIME ( #4, #18 ) ;
#95 = ORIENTED_EDGE ( 'NONE', *, *, #106, .T. ) ;
#96 = DATE_AND_TIME ( #192, #107 ) ;
#97 = APPROVAL_PERSON_ORGANIZATION ( #38, #34, #80 ) ;
#98 = APPROVAL_PERSON_ORGANIZATION ( #237, #85, #122 ) ;
#99 = COORDINATED_UNIVERSAL_TIME_OFFSET ( 5, 0, .BEHIND. ) ;
#100 = PLANE ( 'NONE',  #16 ) ;
#101 = EDGE_CURVE ( 'NONE', #211, #2, #158, .T. ) ;
#102 = PRODUCT_RELATED_PRODUCT_CATEGORY ( 'detail', '', ( #90 ) ) ;
#103 = CARTESIAN_POINT ( 'NONE',  ( 38.09999999999999432, 38.09999999999999432, 0.000000000000000000 ) ) ;
#104 = CALENDAR_DATE ( 2022, 25, 3 ) ;
#105 = VECTOR ( 'NONE', #177, 1000.000000000000000 ) ;
#106 = EDGE_CURVE ( 'NONE', #10, #59, #156, .T. ) ;
#107 = LOCAL_TIME ( 13, 32, 41.00000000000000000, #127 ) ;
#108 = EDGE_CURVE ( 'NONE', #22, #170, #196, .T. ) ;
#109 = ORIENTED_EDGE ( 'NONE', *, *, #226, .T. ) ;
#110 = PLANE ( 'NONE',  #147 ) ;
#111 = MECHANICAL_CONTEXT ( 'NONE', #25, 'mechanical' ) ;
#112 = CALENDAR_DATE ( 2022, 25, 3 ) ;
#113 = EDGE_CURVE ( 'NONE', #78, #2, #29, .T. ) ;
#114 = PERSON_AND_ORGANIZATION ( #220, #140 ) ;
#115 = DIRECTION ( 'NONE',  ( -0.000000000000000000, 0.000000000000000000, 1.000000000000000000 ) ) ;
#116 = PERSON_AND_ORGANIZATION_ROLE ( 'design_owner' ) ;
#117 = DIRECTION ( 'NONE',  ( -1.821231995776175725E-16, 1.000000000000000000, -0.000000000000000000 ) ) ;
#118 = CARTESIAN_POINT ( 'NONE',  ( -38.10000000000000853, 38.09999999999999432, 1.520000000000000018 ) ) ;
#119 = PLANE ( 'NONE',  #219 ) ;
#120 = CC_DESIGN_DATE_AND_TIME_ASSIGNMENT ( #172, #126, ( #208 ) ) ;
#121 = DIRECTION ( 'NONE',  ( -0.000000000000000000, -0.000000000000000000, -1.000000000000000000 ) ) ;
#122 = APPROVAL_ROLE ( '' ) ;
#123 = CLOSED_SHELL ( 'NONE', ( #73, #161, #128, #45, #201, #20 ) ) ;
#124 = ORIENTED_EDGE ( 'NONE', *, *, #212, .T. ) ;
#125 = FACE_OUTER_BOUND ( 'NONE', #19, .T. ) ;
#126 = DATE_TIME_ROLE ( 'creation_date' ) ;
#127 = COORDINATED_UNIVERSAL_TIME_OFFSET ( 5, 0, .BEHIND. ) ;
#128 = ADVANCED_FACE ( 'NONE', ( #203 ), #142, .F. ) ;
#129 = APPLICATION_CONTEXT ( 'configuration controlled 3d designs of mechanical parts and assemblies' ) ;
#130 = PERSON_AND_ORGANIZATION_ROLE ( 'design_supplier' ) ;
#131 = EDGE_LOOP ( 'NONE', ( #167, #224, #93, #55 ) ) ;
#132 =( NAMED_UNIT ( * ) SI_UNIT ( $, .STERADIAN. ) SOLID_ANGLE_UNIT ( ) );
#133 = AXIS2_PLACEMENT_3D ( 'NONE', #194, #87, #49 ) ;
#134 = FACE_OUTER_BOUND ( 'NONE', #40, .T. ) ;
#135 = APPLICATION_PROTOCOL_DEFINITION ( 'international standard', 'config_control_design', 1994, #129 ) ;
#136 = CARTESIAN_POINT ( 'NONE',  ( 38.09999999999999432, 38.09999999999999432, 1.520000000000000018 ) ) ;
#137 = CC_DESIGN_PERSON_AND_ORGANIZATION_ASSIGNMENT ( #114, #176, ( #7 ) ) ;
#138 = CARTESIAN_POINT ( 'NONE',  ( 38.09999999999999432, 38.09999999999999432, 1.520000000000000018 ) ) ;
#139 = EDGE_CURVE ( 'NONE', #206, #78, #65, .T. ) ;
#140 = ORGANIZATION ( 'UNSPECIFIED', 'UNSPECIFIED', '' ) ;
#141 = CC_DESIGN_APPROVAL ( #34, ( #216 ) ) ;
#142 = PLANE ( 'NONE',  #133 ) ;
#143 = DIRECTION ( 'NONE',  ( 1.821231995776175479E-16, -1.000000000000000000, 0.000000000000000000 ) ) ;
#144 = APPROVAL_DATE_TIME ( #166, #85 ) ;
#145 = CC_DESIGN_PERSON_AND_ORGANIZATION_ASSIGNMENT ( #154, #225, ( #216 ) ) ;
#146 = PRODUCT_DEFINITION_SHAPE ( 'NONE', 'NONE',  #208 ) ;
#147 = AXIS2_PLACEMENT_3D ( 'NONE', #189, #115, #64 ) ;
#148 = VECTOR ( 'NONE', #121, 1000.000000000000000 ) ;
#149 = ORIENTED_EDGE ( 'NONE', *, *, #101, .T. ) ;
#150 = PLANE ( 'NONE',  #26 ) ;
#151 = CARTESIAN_POINT ( 'NONE',  ( -38.10000000000000853, 38.09999999999999432, 0.000000000000000000 ) ) ;
#152 = LOCAL_TIME ( 13, 32, 41.00000000000000000, #169 ) ;
#153 = ORIENTED_EDGE ( 'NONE', *, *, #101, .F. ) ;
#154 = PERSON_AND_ORGANIZATION ( #220, #140 ) ;
#155 = DIRECTION ( 'NONE',  ( 1.821231995776175725E-16, -1.000000000000000000, 0.000000000000000000 ) ) ;
#156 = LINE ( 'NONE', #182, #173 ) ;
#157 = DIRECTION ( 'NONE',  ( 1.821231995776175725E-16, -1.000000000000000000, 0.000000000000000000 ) ) ;
#158 = LINE ( 'NONE', #180, #148 ) ;
#159 = ADVANCED_BREP_SHAPE_REPRESENTATION ( 'Web Model 19629_21355', ( #89, #6 ), #61 ) ;
#160 = CARTESIAN_POINT ( 'NONE',  ( -38.09999999999999432, -38.10000000000000853, 0.000000000000000000 ) ) ;
#161 = ADVANCED_FACE ( 'NONE', ( #200 ), #32, .F. ) ;
#162 = DIRECTION ( 'NONE',  ( -0.000000000000000000, 0.000000000000000000, 1.000000000000000000 ) ) ;
#163 = VECTOR ( 'NONE', #234, 1000.000000000000000 ) ;
#164 = LINE ( 'NONE', #86, #74 ) ;
#165 = APPROVAL_STATUS ( 'not_yet_approved' ) ;
#166 = DATE_AND_TIME ( #104, #48 ) ;
#167 = ORIENTED_EDGE ( 'NONE', *, *, #28, .T. ) ;
#168 = ORIENTED_EDGE ( 'NONE', *, *, #113, .F. ) ;
#169 = COORDINATED_UNIVERSAL_TIME_OFFSET ( 5, 0, .BEHIND. ) ;
#170 = VERTEX_POINT ( 'NONE', #229 ) ;
#171 = EDGE_CURVE ( 'NONE', #206, #211, #62, .T. ) ;
#172 = DATE_AND_TIME ( #190, #186 ) ;
#173 = VECTOR ( 'NONE', #218, 1000.000000000000000 ) ;
#174 = CARTESIAN_POINT ( 'NONE',  ( 38.09999999999999432, 38.09999999999999432, 1.520000000000000018 ) ) ;
#175 = ORIENTED_EDGE ( 'NONE', *, *, #106, .F. ) ;
#176 = PERSON_AND_ORGANIZATION_ROLE ( 'classification_officer' ) ;
#177 = DIRECTION ( 'NONE',  ( -0.000000000000000000, -0.000000000000000000, -1.000000000000000000 ) ) ;
#178 = CARTESIAN_POINT ( 'NONE',  ( -38.10000000000000853, 38.09999999999999432, 1.520000000000000018 ) ) ;
#179 = LINE ( 'NONE', #197, #228 ) ;
#180 = CARTESIAN_POINT ( 'NONE',  ( -38.10000000000000853, 38.09999999999999432, 1.520000000000000018 ) ) ;
#181 = DATE_TIME_ROLE ( 'classification_date' ) ;
#182 = CARTESIAN_POINT ( 'NONE',  ( -38.09999999999999432, -38.10000000000000853, 1.520000000000000018 ) ) ;
#183 = DIRECTION ( 'NONE',  ( 0.000000000000000000, -0.000000000000000000, -1.000000000000000000 ) ) ;
#184 = AXIS2_PLACEMENT_3D ( 'NONE', #15, #217, #183 ) ;
#185 = UNCERTAINTY_MEASURE_WITH_UNIT (LENGTH_MEASURE( 1.000000000000000082E-05 ), #63, 'distance_accuracy_value', 'NONE');
#186 = LOCAL_TIME ( 13, 32, 41.00000000000000000, #99 ) ;
#187 = ORIENTED_EDGE ( 'NONE', *, *, #171, .F. ) ;
#188 = CARTESIAN_POINT ( 'NONE',  ( 0.000000000000000000, 0.000000000000000000, 1.520000000000000018 ) ) ;
#189 = CARTESIAN_POINT ( 'NONE',  ( 0.000000000000000000, 0.000000000000000000, 0.000000000000000000 ) ) ;
#190 = CALENDAR_DATE ( 2022, 25, 3 ) ;
#191 = ORIENTED_EDGE ( 'NONE', *, *, #231, .T. ) ;
#192 = CALENDAR_DATE ( 2022, 25, 3 ) ;
#193 = CC_DESIGN_APPROVAL ( #85, ( #7 ) ) ;
#194 = CARTESIAN_POINT ( 'NONE',  ( -38.10000000000000853, 38.09999999999999432, 1.520000000000000018 ) ) ;
#195 =( NAMED_UNIT ( * ) PLANE_ANGLE_UNIT ( ) SI_UNIT ( $, .RADIAN. ) );
#196 = LINE ( 'NONE', #68, #105 ) ;
#197 = CARTESIAN_POINT ( 'NONE',  ( -38.09999999999999432, -38.10000000000000853, 1.520000000000000018 ) ) ;
#198 = DATE_AND_TIME ( #204, #199 ) ;
#199 = LOCAL_TIME ( 13, 32, 41.00000000000000000, #69 ) ;
#200 = FACE_OUTER_BOUND ( 'NONE', #209, .T. ) ;
#201 = ADVANCED_FACE ( 'NONE', ( #77 ), #150, .T. ) ;
#202 = CC_DESIGN_DATE_AND_TIME_ASSIGNMENT ( #198, #181, ( #7 ) ) ;
#203 = FACE_OUTER_BOUND ( 'NONE', #207, .T. ) ;
#204 = CALENDAR_DATE ( 2022, 25, 3 ) ;
#205 = VECTOR ( 'NONE', #157, 1000.000000000000000 ) ;
#206 = VERTEX_POINT ( 'NONE', #70 ) ;
#207 = EDGE_LOOP ( 'NONE', ( #109, #175, #8, #149 ) ) ;
#208 = PRODUCT_DEFINITION ( 'UNKNOWN', '', #216, #53 ) ;
#209 = EDGE_LOOP ( 'NONE', ( #91, #153, #187, #83 ) ) ;
#210 = LINE ( 'NONE', #174, #92 ) ;
#211 = VERTEX_POINT ( 'NONE', #178 ) ;
#212 = EDGE_CURVE ( 'NONE', #211, #10, #84, .T. ) ;
#213 = CARTESIAN_POINT ( 'NONE',  ( -38.10000000000000853, 38.09999999999999432, 1.520000000000000018 ) ) ;
#214 = CARTESIAN_POINT ( 'NONE',  ( -38.10000000000000853, 38.09999999999999432, 0.000000000000000000 ) ) ;
#215 = DIRECTION ( 'NONE',  ( -0.000000000000000000, -0.000000000000000000, -1.000000000000000000 ) ) ;
#216 = PRODUCT_DEFINITION_FORMATION_WITH_SPECIFIED_SOURCE ( 'ANY', '', #90, .NOT_KNOWN. ) ;
#217 = DIRECTION ( 'NONE',  ( 0.000000000000000000, -1.000000000000000000, 0.000000000000000000 ) ) ;
#218 = DIRECTION ( 'NONE',  ( -0.000000000000000000, -0.000000000000000000, -1.000000000000000000 ) ) ;
#219 = AXIS2_PLACEMENT_3D ( 'NONE', #52, #31, #236 ) ;
#220 = PERSON ( 'UNSPECIFIED', 'UNSPECIFIED', 'UNSPECIFIED', ('UNSPECIFIED'), ('UNSPECIFIED'), ('UNSPECIFIED') ) ;
#221 = ORIENTED_EDGE ( 'NONE', *, *, #108, .F. ) ;
#222 = CC_DESIGN_PERSON_AND_ORGANIZATION_ASSIGNMENT ( #60, #130, ( #216 ) ) ;
#223 = EDGE_LOOP ( 'NONE', ( #191, #42, #124, #54 ) ) ;
#224 = ORIENTED_EDGE ( 'NONE', *, *, #139, .F. ) ;
#225 = PERSON_AND_ORGANIZATION_ROLE ( 'creator' ) ;
#226 = EDGE_CURVE ( 'NONE', #2, #59, #230, .T. ) ;
#227 = DIRECTION ( 'NONE',  ( 0.000000000000000000, 0.000000000000000000, 1.000000000000000000 ) ) ;
#228 = VECTOR ( 'NONE', #88, 1000.000000000000000 ) ;
#229 = CARTESIAN_POINT ( 'NONE',  ( 38.10000000000000853, -38.10000000000000853, 0.000000000000000000 ) ) ;
#230 = LINE ( 'NONE', #151, #205 ) ;
#231 = EDGE_CURVE ( 'NONE', #22, #206, #210, .T. ) ;
#232 = DIRECTION ( 'NONE',  ( -1.000000000000000000, -0.000000000000000000, -0.000000000000000000 ) ) ;
#233 = SHAPE_DEFINITION_REPRESENTATION ( #146, #159 ) ;
#234 = DIRECTION ( 'NONE',  ( 1.000000000000000000, 0.000000000000000000, 0.000000000000000000 ) ) ;
#235 = DIRECTION ( 'NONE',  ( 1.000000000000000000, 0.000000000000000000, 0.000000000000000000 ) ) ;
#236 = DIRECTION ( 'NONE',  ( 0.000000000000000000, -0.000000000000000000, 1.000000000000000000 ) ) ;
#237 = PERSON_AND_ORGANIZATION ( #220, #140 ) ;
ENDSEC;
END-ISO-10303-21;
