ISO-10303-21;
HEADER;
FILE_DESCRIPTION (( 'STEP AP203' ),
    '1' );
FILE_NAME ('47193_63107.step',
    '2018-01-22T13:11:54',
    ( '' ),
    ( '' ),
    'SwSTEP 2.0',
    'SolidWorks 2016',
    '' );
FILE_SCHEMA (( 'CONFIG_CONTROL_DESIGN' ));
ENDSEC;

DATA;
#1 = APPROVAL ( #73, 'UNSPECIFIED' ) ;
#2 = CARTESIAN_POINT ( 'NONE',  ( 6.249999999999998200, 0.0000000000000000000, -2.000000000000000000 ) ) ;
#3 = ORIENTED_EDGE ( 'NONE', *, *, #37, .F. ) ;
#4 = COORDINATED_UNIVERSAL_TIME_OFFSET ( 5, 0, .BEHIND. ) ;
#5 = PRODUCT_DEFINITION_FORMATION_WITH_SPECIFIED_SOURCE ( 'ANY', '', #89, .NOT_KNOWN. ) ;
#6 =( NAMED_UNIT ( * ) PLANE_ANGLE_UNIT ( ) SI_UNIT ( $, .RADIAN. ) );
#7 = DATE_AND_TIME ( #137, #46 ) ;
#8 = DATE_TIME_ROLE ( 'classification_date' ) ;
#9 = CIRCLE ( 'NONE', #75, 6.249999999999998200 ) ;
#10 = EDGE_CURVE ( 'NONE', #120, #104, #74, .T. ) ;
#11 = ORIENTED_EDGE ( 'NONE', *, *, #37, .T. ) ;
#12 = DIRECTION ( 'NONE',  ( 0.0000000000000000000, 0.0000000000000000000, 1.000000000000000000 ) ) ;
#13 = VERTEX_POINT ( 'NONE', #42 ) ;
#14 = DIRECTION ( 'NONE',  ( 0.0000000000000000000, 0.0000000000000000000, 1.000000000000000000 ) ) ;
#15 = CARTESIAN_POINT ( 'NONE',  ( -6.249999999999998200, 7.654042494670955600E-016, -2.000000000000000000 ) ) ;
#16 = DIRECTION ( 'NONE',  ( 1.000000000000000000, 0.0000000000000000000, 0.0000000000000000000 ) ) ;
#17 = CARTESIAN_POINT ( 'NONE',  ( 0.0000000000000000000, 0.0000000000000000000, 0.0000000000000000000 ) ) ;
#18 = SHAPE_DEFINITION_REPRESENTATION ( #47, #127 ) ;
#19 = APPROVAL_PERSON_ORGANIZATION ( #43, #143, #77 ) ;
#20 = EDGE_CURVE ( 'NONE', #104, #13, #151, .T. ) ;
#21 = EDGE_LOOP ( 'NONE', ( #3, #68, #31, #38 ) ) ;
#22 = AXIS2_PLACEMENT_3D ( 'NONE', #114, #96, #106 ) ;
#23 = APPROVAL_ROLE ( '' ) ;
#24 = PERSON_AND_ORGANIZATION ( #65, #71 ) ;
#25 = APPLICATION_CONTEXT ( 'configuration controlled 3d designs of mechanical parts and assemblies' ) ;
#26 = CLOSED_SHELL ( 'NONE', ( #107, #159, #41, #57 ) ) ;
#27 = CARTESIAN_POINT ( 'NONE',  ( 0.0000000000000000000, 0.0000000000000000000, -2.000000000000000000 ) ) ;
#28 = CALENDAR_DATE ( 2018, 22, 1 ) ;
#29 = MECHANICAL_CONTEXT ( 'NONE', #25, 'mechanical' ) ;
#30 = DIRECTION ( 'NONE',  ( 1.000000000000000000, 0.0000000000000000000, 0.0000000000000000000 ) ) ;
#31 = ORIENTED_EDGE ( 'NONE', *, *, #10, .T. ) ;
#32 = DIRECTION ( 'NONE',  ( 0.0000000000000000000, 0.0000000000000000000, 1.000000000000000000 ) ) ;
#33 = CALENDAR_DATE ( 2018, 22, 1 ) ;
#34 = APPLICATION_CONTEXT ( 'configuration controlled 3d designs of mechanical parts and assemblies' ) ;
#35 = EDGE_CURVE ( 'NONE', #120, #53, #9, .T. ) ;
#36 = ORIENTED_EDGE ( 'NONE', *, *, #35, .F. ) ;
#37 = EDGE_CURVE ( 'NONE', #53, #13, #129, .T. ) ;
#38 = ORIENTED_EDGE ( 'NONE', *, *, #59, .F. ) ;
#39 = APPROVAL_PERSON_ORGANIZATION ( #149, #1, #61 ) ;
#40 = DIRECTION ( 'NONE',  ( 1.000000000000000000, 0.0000000000000000000, 0.0000000000000000000 ) ) ;
#41 = ADVANCED_FACE ( 'NONE', ( #125 ), #66, .F. ) ;
#42 = CARTESIAN_POINT ( 'NONE',  ( -6.249999999999998200, 7.654042494670955600E-016, 0.0000000000000000000 ) ) ;
#43 = PERSON_AND_ORGANIZATION ( #65, #71 ) ;
#44 = CC_DESIGN_DATE_AND_TIME_ASSIGNMENT ( #79, #8, ( #164 ) ) ;
#45 = DIRECTION ( 'NONE',  ( 0.0000000000000000000, 0.0000000000000000000, 1.000000000000000000 ) ) ;
#46 = LOCAL_TIME ( 8, 11, 54.00000000000000000, #4 ) ;
#47 = PRODUCT_DEFINITION_SHAPE ( 'NONE', 'NONE',  #152 ) ;
#48 = CYLINDRICAL_SURFACE ( 'NONE', #91, 6.249999999999998200 ) ;
#49 = PERSON_AND_ORGANIZATION ( #65, #71 ) ;
#50 = APPROVAL_DATE_TIME ( #99, #143 ) ;
#51 = LOCAL_TIME ( 8, 11, 54.00000000000000000, #60 ) ;
#52 = CALENDAR_DATE ( 2018, 22, 1 ) ;
#53 = VERTEX_POINT ( 'NONE', #72 ) ;
#54 = CARTESIAN_POINT ( 'NONE',  ( 0.0000000000000000000, 0.0000000000000000000, -2.000000000000000000 ) ) ;
#55 = APPROVAL_STATUS ( 'not_yet_approved' ) ;
#56 = DATE_TIME_ROLE ( 'creation_date' ) ;
#57 = ADVANCED_FACE ( 'NONE', ( #138 ), #142, .T. ) ;
#58 = LOCAL_TIME ( 8, 11, 54.00000000000000000, #160 ) ;
#59 = EDGE_CURVE ( 'NONE', #13, #104, #169, .T. ) ;
#60 = COORDINATED_UNIVERSAL_TIME_OFFSET ( 5, 0, .BEHIND. ) ;
#61 = APPROVAL_ROLE ( '' ) ;
#62 = APPROVAL_DATE_TIME ( #118, #97 ) ;
#63 = CYLINDRICAL_SURFACE ( 'NONE', #86, 6.249999999999998200 ) ;
#64 = AXIS2_PLACEMENT_3D ( 'NONE', #83, #161, #70 ) ;
#65 = PERSON ( 'UNSPECIFIED', 'UNSPECIFIED', 'UNSPECIFIED', ('UNSPECIFIED'), ('UNSPECIFIED'), ('UNSPECIFIED') ) ;
#66 = PLANE ( 'NONE',  #165 ) ;
#67 = DIRECTION ( 'NONE',  ( 0.0000000000000000000, 0.0000000000000000000, 1.000000000000000000 ) ) ;
#68 = ORIENTED_EDGE ( 'NONE', *, *, #93, .T. ) ;
#69 = APPLICATION_PROTOCOL_DEFINITION ( 'international standard', 'config_control_design', 1994, #34 ) ;
#70 = DIRECTION ( 'NONE',  ( 1.000000000000000000, 0.0000000000000000000, 0.0000000000000000000 ) ) ;
#71 = ORGANIZATION ( 'UNSPECIFIED', 'UNSPECIFIED', '' ) ;
#72 = CARTESIAN_POINT ( 'NONE',  ( -6.249999999999998200, 7.654042494670955600E-016, -2.000000000000000000 ) ) ;
#73 = APPROVAL_STATUS ( 'not_yet_approved' ) ;
#74 = LINE ( 'NONE', #2, #174 ) ;
#75 = AXIS2_PLACEMENT_3D ( 'NONE', #54, #45, #16 ) ;
#76 = PERSON_AND_ORGANIZATION_ROLE ( 'design_supplier' ) ;
#77 = APPROVAL_ROLE ( '' ) ;
#78 = COORDINATED_UNIVERSAL_TIME_OFFSET ( 5, 0, .BEHIND. ) ;
#79 = DATE_AND_TIME ( #92, #51 ) ;
#80 = ORIENTED_EDGE ( 'NONE', *, *, #59, .T. ) ;
#81 = DIRECTION ( 'NONE',  ( 1.000000000000000000, 0.0000000000000000000, 0.0000000000000000000 ) ) ;
#82 = CARTESIAN_POINT ( 'NONE',  ( 0.0000000000000000000, 0.0000000000000000000, 0.0000000000000000000 ) ) ;
#83 = CARTESIAN_POINT ( 'NONE',  ( 0.0000000000000000000, 0.0000000000000000000, 0.0000000000000000000 ) ) ;
#84 = DIRECTION ( 'NONE',  ( 1.000000000000000000, 0.0000000000000000000, -0.0000000000000000000 ) ) ;
#85 = EDGE_LOOP ( 'NONE', ( #36, #111 ) ) ;
#86 = AXIS2_PLACEMENT_3D ( 'NONE', #117, #145, #40 ) ;
#87 = FACE_OUTER_BOUND ( 'NONE', #115, .T. ) ;
#88 = PERSON_AND_ORGANIZATION_ROLE ( 'classification_officer' ) ;
#89 = PRODUCT ( '47193_63107', '47193_63107', '', ( #29 ) ) ;
#90 = CARTESIAN_POINT ( 'NONE',  ( 0.0000000000000000000, 0.0000000000000000000, -2.000000000000000000 ) ) ;
#91 = AXIS2_PLACEMENT_3D ( 'NONE', #27, #12, #103 ) ;
#92 = CALENDAR_DATE ( 2018, 22, 1 ) ;
#93 = EDGE_CURVE ( 'NONE', #53, #120, #139, .T. ) ;
#94 = ORIENTED_EDGE ( 'NONE', *, *, #20, .F. ) ;
#95 = DIRECTION ( 'NONE',  ( 0.0000000000000000000, 0.0000000000000000000, 1.000000000000000000 ) ) ;
#96 = DIRECTION ( 'NONE',  ( 0.0000000000000000000, 0.0000000000000000000, 1.000000000000000000 ) ) ;
#97 = APPROVAL ( #100, 'UNSPECIFIED' ) ;
#98 = DESIGN_CONTEXT ( 'detailed design', #34, 'design' ) ;
#99 = DATE_AND_TIME ( #33, #58 ) ;
#100 = APPROVAL_STATUS ( 'not_yet_approved' ) ;
#101 = CC_DESIGN_DATE_AND_TIME_ASSIGNMENT ( #154, #56, ( #152 ) ) ;
#102 = CC_DESIGN_PERSON_AND_ORGANIZATION_ASSIGNMENT ( #140, #150, ( #5 ) ) ;
#103 = DIRECTION ( 'NONE',  ( 1.000000000000000000, 0.0000000000000000000, 0.0000000000000000000 ) ) ;
#104 = VERTEX_POINT ( 'NONE', #172 ) ;
#105 = CC_DESIGN_SECURITY_CLASSIFICATION ( #164, ( #5 ) ) ;
#106 = DIRECTION ( 'NONE',  ( 1.000000000000000000, 0.0000000000000000000, 0.0000000000000000000 ) ) ;
#107 = ADVANCED_FACE ( 'NONE', ( #87 ), #63, .T. ) ;
#108 = DIRECTION ( 'NONE',  ( 0.0000000000000000000, 0.0000000000000000000, 1.000000000000000000 ) ) ;
#109 = APPROVAL_PERSON_ORGANIZATION ( #123, #97, #23 ) ;
#110 = ORIENTED_EDGE ( 'NONE', *, *, #10, .F. ) ;
#111 = ORIENTED_EDGE ( 'NONE', *, *, #93, .F. ) ;
#112 = PERSON_AND_ORGANIZATION ( #65, #71 ) ;
#113 = VECTOR ( 'NONE', #32, 1000.000000000000000 ) ;
#114 = CARTESIAN_POINT ( 'NONE',  ( 0.0000000000000000000, 0.0000000000000000000, 0.0000000000000000000 ) ) ;
#115 = EDGE_LOOP ( 'NONE', ( #148, #11, #94, #110 ) ) ;
#116 = CC_DESIGN_PERSON_AND_ORGANIZATION_ASSIGNMENT ( #171, #134, ( #89 ) ) ;
#117 = CARTESIAN_POINT ( 'NONE',  ( 0.0000000000000000000, 0.0000000000000000000, -2.000000000000000000 ) ) ;
#118 = DATE_AND_TIME ( #28, #153 ) ;
#119 = AXIS2_PLACEMENT_3D ( 'NONE', #17, #67, #144 ) ;
#120 = VERTEX_POINT ( 'NONE', #157 ) ;
#121 = CC_DESIGN_PERSON_AND_ORGANIZATION_ASSIGNMENT ( #49, #170, ( #152 ) ) ;
#122 = ORIENTED_EDGE ( 'NONE', *, *, #20, .T. ) ;
#123 = PERSON_AND_ORGANIZATION ( #65, #71 ) ;
#124 = APPLICATION_PROTOCOL_DEFINITION ( 'international standard', 'config_control_design', 1994, #25 ) ;
#125 = FACE_OUTER_BOUND ( 'NONE', #85, .T. ) ;
#126 = AXIS2_PLACEMENT_3D ( 'NONE', #90, #108, #81 ) ;
#127 = ADVANCED_BREP_SHAPE_REPRESENTATION ( '47193_63107', ( #173, #22 ), #133 ) ;
#128 = DIRECTION ( 'NONE',  ( 0.0000000000000000000, 0.0000000000000000000, 1.000000000000000000 ) ) ;
#129 = LINE ( 'NONE', #15, #113 ) ;
#130 =( LENGTH_UNIT ( ) NAMED_UNIT ( * ) SI_UNIT ( .MILLI., .METRE. ) );
#131 = EDGE_LOOP ( 'NONE', ( #122, #80 ) ) ;
#132 = CC_DESIGN_APPROVAL ( #143, ( #152 ) ) ;
#133 =( GEOMETRIC_REPRESENTATION_CONTEXT ( 3 ) GLOBAL_UNCERTAINTY_ASSIGNED_CONTEXT ( ( #147 ) ) GLOBAL_UNIT_ASSIGNED_CONTEXT ( ( #130, #6, #135 ) ) REPRESENTATION_CONTEXT ( 'NONE', 'WORKASPACE' ) );
#134 = PERSON_AND_ORGANIZATION_ROLE ( 'design_owner' ) ;
#135 =( NAMED_UNIT ( * ) SI_UNIT ( $, .STERADIAN. ) SOLID_ANGLE_UNIT ( ) );
#136 = CC_DESIGN_APPROVAL ( #97, ( #164 ) ) ;
#137 = CALENDAR_DATE ( 2018, 22, 1 ) ;
#138 = FACE_OUTER_BOUND ( 'NONE', #131, .T. ) ;
#139 = CIRCLE ( 'NONE', #126, 6.249999999999998200 ) ;
#140 = PERSON_AND_ORGANIZATION ( #65, #71 ) ;
#141 = PRODUCT_RELATED_PRODUCT_CATEGORY ( 'detail', '', ( #89 ) ) ;
#142 = PLANE ( 'NONE',  #119 ) ;
#143 = APPROVAL ( #55, 'UNSPECIFIED' ) ;
#144 = DIRECTION ( 'NONE',  ( 1.000000000000000000, 0.0000000000000000000, -0.0000000000000000000 ) ) ;
#145 = DIRECTION ( 'NONE',  ( 0.0000000000000000000, 0.0000000000000000000, 1.000000000000000000 ) ) ;
#146 = AXIS2_PLACEMENT_3D ( 'NONE', #82, #14, #30 ) ;
#147 = UNCERTAINTY_MEASURE_WITH_UNIT (LENGTH_MEASURE( 1.000000000000000100E-005 ), #130, 'distance_accuracy_value', 'NONE');
#148 = ORIENTED_EDGE ( 'NONE', *, *, #35, .T. ) ;
#149 = PERSON_AND_ORGANIZATION ( #65, #71 ) ;
#150 = PERSON_AND_ORGANIZATION_ROLE ( 'creator' ) ;
#151 = CIRCLE ( 'NONE', #64, 6.249999999999998200 ) ;
#152 = PRODUCT_DEFINITION ( 'UNKNOWN', '', #5, #98 ) ;
#153 = LOCAL_TIME ( 8, 11, 54.00000000000000000, #163 ) ;
#154 = DATE_AND_TIME ( #52, #155 ) ;
#155 = LOCAL_TIME ( 8, 11, 54.00000000000000000, #78 ) ;
#156 = CC_DESIGN_APPROVAL ( #1, ( #5 ) ) ;
#157 = CARTESIAN_POINT ( 'NONE',  ( 6.249999999999998200, 0.0000000000000000000, -2.000000000000000000 ) ) ;
#158 = APPROVAL_DATE_TIME ( #7, #1 ) ;
#159 = ADVANCED_FACE ( 'NONE', ( #166 ), #48, .T. ) ;
#160 = COORDINATED_UNIVERSAL_TIME_OFFSET ( 5, 0, .BEHIND. ) ;
#161 = DIRECTION ( 'NONE',  ( 0.0000000000000000000, 0.0000000000000000000, 1.000000000000000000 ) ) ;
#162 = CARTESIAN_POINT ( 'NONE',  ( 0.0000000000000000000, 0.0000000000000000000, -2.000000000000000000 ) ) ;
#163 = COORDINATED_UNIVERSAL_TIME_OFFSET ( 5, 0, .BEHIND. ) ;
#164 = SECURITY_CLASSIFICATION ( '', '', #168 ) ;
#165 = AXIS2_PLACEMENT_3D ( 'NONE', #162, #128, #84 ) ;
#166 = FACE_OUTER_BOUND ( 'NONE', #21, .T. ) ;
#167 = CC_DESIGN_PERSON_AND_ORGANIZATION_ASSIGNMENT ( #24, #76, ( #5 ) ) ;
#168 = SECURITY_CLASSIFICATION_LEVEL ( 'unclassified' ) ;
#169 = CIRCLE ( 'NONE', #146, 6.249999999999998200 ) ;
#170 = PERSON_AND_ORGANIZATION_ROLE ( 'creator' ) ;
#171 = PERSON_AND_ORGANIZATION ( #65, #71 ) ;
#172 = CARTESIAN_POINT ( 'NONE',  ( 6.249999999999998200, 0.0000000000000000000, 0.0000000000000000000 ) ) ;
#173 = MANIFOLD_SOLID_BREP ( 'Boss-Extrude1', #26 ) ;
#174 = VECTOR ( 'NONE', #95, 1000.000000000000000 ) ;
#175 = CC_DESIGN_PERSON_AND_ORGANIZATION_ASSIGNMENT ( #112, #88, ( #164 ) ) ;
ENDSEC;
END-ISO-10303-21;
