ISO-10303-21;
HEADER;
FILE_DESCRIPTION (( 'STEP AP203' ),
    '1' );
FILE_NAME ('Web Model 14960_14973.step',
    '2021-06-14T15:12:26',
    ( '' ),
    ( '' ),
    'SwSTEP 2.0',
    'SolidWorks 2018',
    '' );
FILE_SCHEMA (( 'CONFIG_CONTROL_DESIGN' ));
ENDSEC;

DATA;
#1 = COORDINATED_UNIVERSAL_TIME_OFFSET ( 5, 0, .BEHIND. ) ;
#2 = PLANE ( 'NONE',  #20 ) ;
#3 = PERSON_AND_ORGANIZATION ( #85, #41 ) ;
#4 = APPLICATION_PROTOCOL_DEFINITION ( 'international standard', 'config_control_design', 1994, #172 ) ;
#5 = PERSON_AND_ORGANIZATION_ROLE ( 'creator' ) ;
#6 = MECHANICAL_CONTEXT ( 'NONE', #63, 'mechanical' ) ;
#7 = COORDINATED_UNIVERSAL_TIME_OFFSET ( 5, 0, .BEHIND. ) ;
#8 = ORIENTED_EDGE ( 'NONE', *, *, #72, .F. ) ;
#9 = CC_DESIGN_PERSON_AND_ORGANIZATION_ASSIGNMENT ( #3, #147, ( #145 ) ) ;
#10 = ORIENTED_EDGE ( 'NONE', *, *, #64, .T. ) ;
#11 = DIRECTION ( 'NONE',  ( 0.000000000000000000, 0.000000000000000000, -1.000000000000000000 ) ) ;
#12 = DIRECTION ( 'NONE',  ( 0.000000000000000000, 0.000000000000000000, 1.000000000000000000 ) ) ;
#13 = LINE ( 'NONE', #70, #94 ) ;
#14 = VERTEX_POINT ( 'NONE', #22 ) ;
#15 = LOCAL_TIME ( 11, 12, 26.00000000000000000, #73 ) ;
#16 = EDGE_LOOP ( 'NONE', ( #159, #132 ) ) ;
#17 = LOCAL_TIME ( 11, 12, 26.00000000000000000, #167 ) ;
#18 = ORIENTED_EDGE ( 'NONE', *, *, #72, .T. ) ;
#19 = CARTESIAN_POINT ( 'NONE',  ( -1.000000000000000000, 9.184850993605147944E-16, -7.500000000000000000 ) ) ;
#20 = AXIS2_PLACEMENT_3D ( 'NONE', #144, #120, #100 ) ;
#21 = ORIENTED_EDGE ( 'NONE', *, *, #90, .T. ) ;
#22 = CARTESIAN_POINT ( 'NONE',  ( 1.000000000000000000, 0.000000000000000000, 7.500000000000000000 ) ) ;
#23 = DATE_TIME_ROLE ( 'creation_date' ) ;
#24 = SECURITY_CLASSIFICATION_LEVEL ( 'unclassified' ) ;
#25 = FACE_OUTER_BOUND ( 'NONE', #46, .T. ) ;
#26 = DIRECTION ( 'NONE',  ( 0.000000000000000000, 0.000000000000000000, 1.000000000000000000 ) ) ;
#27 = DIRECTION ( 'NONE',  ( 1.000000000000000000, 0.000000000000000000, 0.000000000000000000 ) ) ;
#28 = VERTEX_POINT ( 'NONE', #19 ) ;
#29 = DATE_TIME_ROLE ( 'classification_date' ) ;
#30 = CYLINDRICAL_SURFACE ( 'NONE', #111, 7.500000000000000000 ) ;
#31 = AXIS2_PLACEMENT_3D ( 'NONE', #44, #12, #36 ) ;
#32 = CARTESIAN_POINT ( 'NONE',  ( -1.000000000000000000, 0.000000000000000000, 0.000000000000000000 ) ) ;
#33 = DIRECTION ( 'NONE',  ( 0.000000000000000000, 0.000000000000000000, -1.000000000000000000 ) ) ;
#34 = CIRCLE ( 'NONE', #39, 7.500000000000000000 ) ;
#35 = EDGE_LOOP ( 'NONE', ( #62, #68, #157, #130 ) ) ;
#36 = DIRECTION ( 'NONE',  ( 1.000000000000000000, 0.000000000000000000, 0.000000000000000000 ) ) ;
#37 = APPROVAL_PERSON_ORGANIZATION ( #156, #49, #107 ) ;
#38 = PERSON_AND_ORGANIZATION ( #85, #41 ) ;
#39 = AXIS2_PLACEMENT_3D ( 'NONE', #110, #27, #158 ) ;
#40 = DATE_AND_TIME ( #126, #112 ) ;
#41 = ORGANIZATION ( 'UNSPECIFIED', 'UNSPECIFIED', '' ) ;
#42 = ORIENTED_EDGE ( 'NONE', *, *, #103, .T. ) ;
#43 = PERSON_AND_ORGANIZATION ( #85, #41 ) ;
#44 = CARTESIAN_POINT ( 'NONE',  ( 0.000000000000000000, 0.000000000000000000, 0.000000000000000000 ) ) ;
#45 = CARTESIAN_POINT ( 'NONE',  ( 1.000000000000000000, 9.184850993605147944E-16, -7.500000000000000000 ) ) ;
#46 = EDGE_LOOP ( 'NONE', ( #18, #10 ) ) ;
#47 =( NAMED_UNIT ( * ) SI_UNIT ( $, .STERADIAN. ) SOLID_ANGLE_UNIT ( ) );
#48 = CARTESIAN_POINT ( 'NONE',  ( 1.000000000000000000, 0.000000000000000000, 0.000000000000000000 ) ) ;
#49 = APPROVAL ( #123, 'UNSPECIFIED' ) ;
#50 = APPROVAL_PERSON_ORGANIZATION ( #67, #55, #108 ) ;
#51 = EDGE_LOOP ( 'NONE', ( #52, #8, #21, #42 ) ) ;
#52 = ORIENTED_EDGE ( 'NONE', *, *, #92, .F. ) ;
#53 =( GEOMETRIC_REPRESENTATION_CONTEXT ( 3 ) GLOBAL_UNCERTAINTY_ASSIGNED_CONTEXT ( ( #89 ) ) GLOBAL_UNIT_ASSIGNED_CONTEXT ( ( #86, #87, #47 ) ) REPRESENTATION_CONTEXT ( 'NONE', 'WORKASPACE' ) );
#54 = DATE_AND_TIME ( #169, #58 ) ;
#55 = APPROVAL ( #105, 'UNSPECIFIED' ) ;
#56 = ADVANCED_FACE ( 'NONE', ( #25 ), #2, .T. ) ;
#57 = AXIS2_PLACEMENT_3D ( 'NONE', #160, #171, #11 ) ;
#58 = LOCAL_TIME ( 11, 12, 26.00000000000000000, #122 ) ;
#59 = PLANE ( 'NONE',  #141 ) ;
#60 = LINE ( 'NONE', #76, #173 ) ;
#61 = DIRECTION ( 'NONE',  ( 1.000000000000000000, 0.000000000000000000, 0.000000000000000000 ) ) ;
#62 = ORIENTED_EDGE ( 'NONE', *, *, #64, .F. ) ;
#63 = APPLICATION_CONTEXT ( 'configuration controlled 3d designs of mechanical parts and assemblies' ) ;
#64 = EDGE_CURVE ( 'NONE', #165, #14, #116, .T. ) ;
#65 = ADVANCED_BREP_SHAPE_REPRESENTATION ( 'Web Model 14960_14973', ( #166, #31 ), #53 ) ;
#66 = AXIS2_PLACEMENT_3D ( 'NONE', #48, #79, #152 ) ;
#67 = PERSON_AND_ORGANIZATION ( #85, #41 ) ;
#68 = ORIENTED_EDGE ( 'NONE', *, *, #92, .T. ) ;
#69 = CC_DESIGN_SECURITY_CLASSIFICATION ( #74, ( #145 ) ) ;
#70 = CARTESIAN_POINT ( 'NONE',  ( 1.000000000000000000, 0.000000000000000000, 7.500000000000000000 ) ) ;
#71 = CC_DESIGN_PERSON_AND_ORGANIZATION_ASSIGNMENT ( #104, #5, ( #117 ) ) ;
#72 = EDGE_CURVE ( 'NONE', #14, #165, #118, .T. ) ;
#73 = COORDINATED_UNIVERSAL_TIME_OFFSET ( 5, 0, .BEHIND. ) ;
#74 = SECURITY_CLASSIFICATION ( '', '', #24 ) ;
#75 = DIRECTION ( 'NONE',  ( 0.000000000000000000, 0.000000000000000000, -1.000000000000000000 ) ) ;
#76 = CARTESIAN_POINT ( 'NONE',  ( 1.000000000000000000, 9.184850993605147944E-16, -7.500000000000000000 ) ) ;
#77 = CALENDAR_DATE ( 2021, 14, 6 ) ;
#78 = DIRECTION ( 'NONE',  ( 1.000000000000000000, 0.000000000000000000, 0.000000000000000000 ) ) ;
#79 = DIRECTION ( 'NONE',  ( -1.000000000000000000, -0.000000000000000000, -0.000000000000000000 ) ) ;
#80 = APPROVAL_DATE_TIME ( #162, #95 ) ;
#81 = PERSON_AND_ORGANIZATION_ROLE ( 'classification_officer' ) ;
#82 = SHAPE_DEFINITION_REPRESENTATION ( #114, #65 ) ;
#83 = CC_DESIGN_APPROVAL ( #49, ( #145 ) ) ;
#84 = CALENDAR_DATE ( 2021, 14, 6 ) ;
#85 = PERSON ( 'UNSPECIFIED', 'UNSPECIFIED', 'UNSPECIFIED', ('UNSPECIFIED'), ('UNSPECIFIED'), ('UNSPECIFIED') ) ;
#86 =( LENGTH_UNIT ( ) NAMED_UNIT ( * ) SI_UNIT ( .MILLI., .METRE. ) );
#87 =( NAMED_UNIT ( * ) PLANE_ANGLE_UNIT ( ) SI_UNIT ( $, .RADIAN. ) );
#88 = DIRECTION ( 'NONE',  ( 0.000000000000000000, 0.000000000000000000, -1.000000000000000000 ) ) ;
#89 = UNCERTAINTY_MEASURE_WITH_UNIT (LENGTH_MEASURE( 1.000000000000000082E-05 ), #86, 'distance_accuracy_value', 'NONE');
#90 = EDGE_CURVE ( 'NONE', #14, #119, #13, .T. ) ;
#91 = CALENDAR_DATE ( 2021, 14, 6 ) ;
#92 = EDGE_CURVE ( 'NONE', #165, #28, #60, .T. ) ;
#93 = DESIGN_CONTEXT ( 'detailed design', #172, 'design' ) ;
#94 = VECTOR ( 'NONE', #143, 1000.000000000000000 ) ;
#95 = APPROVAL ( #163, 'UNSPECIFIED' ) ;
#96 = ADVANCED_FACE ( 'NONE', ( #138 ), #59, .F. ) ;
#97 = EDGE_CURVE ( 'NONE', #28, #119, #101, .T. ) ;
#98 = APPROVAL_DATE_TIME ( #154, #55 ) ;
#99 = ADVANCED_FACE ( 'NONE', ( #175 ), #30, .T. ) ;
#100 = DIRECTION ( 'NONE',  ( 0.000000000000000000, 0.000000000000000000, -1.000000000000000000 ) ) ;
#101 = CIRCLE ( 'NONE', #57, 7.500000000000000000 ) ;
#102 = PRODUCT ( 'Web Model 14960_14973', 'Web Model 14960_14973', '', ( #6 ) ) ;
#103 = EDGE_CURVE ( 'NONE', #119, #28, #34, .T. ) ;
#104 = PERSON_AND_ORGANIZATION ( #85, #41 ) ;
#105 = APPROVAL_STATUS ( 'not_yet_approved' ) ;
#106 = AXIS2_PLACEMENT_3D ( 'NONE', #170, #78, #33 ) ;
#107 = APPROVAL_ROLE ( '' ) ;
#108 = APPROVAL_ROLE ( '' ) ;
#109 = CARTESIAN_POINT ( 'NONE',  ( 1.000000000000000000, 0.000000000000000000, 0.000000000000000000 ) ) ;
#110 = CARTESIAN_POINT ( 'NONE',  ( -1.000000000000000000, 0.000000000000000000, 0.000000000000000000 ) ) ;
#111 = AXIS2_PLACEMENT_3D ( 'NONE', #109, #137, #26 ) ;
#112 = LOCAL_TIME ( 11, 12, 26.00000000000000000, #1 ) ;
#113 = CC_DESIGN_PERSON_AND_ORGANIZATION_ASSIGNMENT ( #128, #124, ( #145 ) ) ;
#114 = PRODUCT_DEFINITION_SHAPE ( 'NONE', 'NONE',  #117 ) ;
#115 = APPROVAL_PERSON_ORGANIZATION ( #131, #95, #127 ) ;
#116 = CIRCLE ( 'NONE', #164, 7.500000000000000000 ) ;
#117 = PRODUCT_DEFINITION ( 'UNKNOWN', '', #145, #93 ) ;
#118 = CIRCLE ( 'NONE', #106, 7.500000000000000000 ) ;
#119 = VERTEX_POINT ( 'NONE', #125 ) ;
#120 = DIRECTION ( 'NONE',  ( 1.000000000000000000, 0.000000000000000000, 0.000000000000000000 ) ) ;
#121 = CC_DESIGN_DATE_AND_TIME_ASSIGNMENT ( #142, #23, ( #117 ) ) ;
#122 = COORDINATED_UNIVERSAL_TIME_OFFSET ( 5, 0, .BEHIND. ) ;
#123 = APPROVAL_STATUS ( 'not_yet_approved' ) ;
#124 = PERSON_AND_ORGANIZATION_ROLE ( 'design_supplier' ) ;
#125 = CARTESIAN_POINT ( 'NONE',  ( -1.000000000000000000, 0.000000000000000000, 7.500000000000000000 ) ) ;
#126 = CALENDAR_DATE ( 2021, 14, 6 ) ;
#127 = APPROVAL_ROLE ( '' ) ;
#128 = PERSON_AND_ORGANIZATION ( #85, #41 ) ;
#129 = CC_DESIGN_DATE_AND_TIME_ASSIGNMENT ( #54, #29, ( #74 ) ) ;
#130 = ORIENTED_EDGE ( 'NONE', *, *, #90, .F. ) ;
#131 = PERSON_AND_ORGANIZATION ( #85, #41 ) ;
#132 = ORIENTED_EDGE ( 'NONE', *, *, #97, .F. ) ;
#133 = CC_DESIGN_APPROVAL ( #95, ( #74 ) ) ;
#134 = LOCAL_TIME ( 11, 12, 26.00000000000000000, #7 ) ;
#135 = CARTESIAN_POINT ( 'NONE',  ( 1.000000000000000000, 0.000000000000000000, 0.000000000000000000 ) ) ;
#136 = APPLICATION_PROTOCOL_DEFINITION ( 'international standard', 'config_control_design', 1994, #63 ) ;
#137 = DIRECTION ( 'NONE',  ( -1.000000000000000000, -0.000000000000000000, -0.000000000000000000 ) ) ;
#138 = FACE_OUTER_BOUND ( 'NONE', #16, .T. ) ;
#139 = CC_DESIGN_APPROVAL ( #55, ( #117 ) ) ;
#140 = FACE_OUTER_BOUND ( 'NONE', #51, .T. ) ;
#141 = AXIS2_PLACEMENT_3D ( 'NONE', #32, #148, #88 ) ;
#142 = DATE_AND_TIME ( #84, #15 ) ;
#143 = DIRECTION ( 'NONE',  ( -1.000000000000000000, -0.000000000000000000, -0.000000000000000000 ) ) ;
#144 = CARTESIAN_POINT ( 'NONE',  ( 1.000000000000000000, 0.000000000000000000, 0.000000000000000000 ) ) ;
#145 = PRODUCT_DEFINITION_FORMATION_WITH_SPECIFIED_SOURCE ( 'ANY', '', #102, .NOT_KNOWN. ) ;
#146 = CYLINDRICAL_SURFACE ( 'NONE', #66, 7.500000000000000000 ) ;
#147 = PERSON_AND_ORGANIZATION_ROLE ( 'creator' ) ;
#148 = DIRECTION ( 'NONE',  ( 1.000000000000000000, 0.000000000000000000, 0.000000000000000000 ) ) ;
#149 = APPROVAL_DATE_TIME ( #40, #49 ) ;
#150 = DIRECTION ( 'NONE',  ( -1.000000000000000000, -0.000000000000000000, -0.000000000000000000 ) ) ;
#151 = CC_DESIGN_PERSON_AND_ORGANIZATION_ASSIGNMENT ( #38, #161, ( #102 ) ) ;
#152 = DIRECTION ( 'NONE',  ( 0.000000000000000000, 0.000000000000000000, 1.000000000000000000 ) ) ;
#153 = CLOSED_SHELL ( 'NONE', ( #99, #155, #56, #96 ) ) ;
#154 = DATE_AND_TIME ( #77, #17 ) ;
#155 = ADVANCED_FACE ( 'NONE', ( #140 ), #146, .T. ) ;
#156 = PERSON_AND_ORGANIZATION ( #85, #41 ) ;
#157 = ORIENTED_EDGE ( 'NONE', *, *, #97, .T. ) ;
#158 = DIRECTION ( 'NONE',  ( 0.000000000000000000, 0.000000000000000000, -1.000000000000000000 ) ) ;
#159 = ORIENTED_EDGE ( 'NONE', *, *, #103, .F. ) ;
#160 = CARTESIAN_POINT ( 'NONE',  ( -1.000000000000000000, 0.000000000000000000, 0.000000000000000000 ) ) ;
#161 = PERSON_AND_ORGANIZATION_ROLE ( 'design_owner' ) ;
#162 = DATE_AND_TIME ( #91, #134 ) ;
#163 = APPROVAL_STATUS ( 'not_yet_approved' ) ;
#164 = AXIS2_PLACEMENT_3D ( 'NONE', #135, #61, #75 ) ;
#165 = VERTEX_POINT ( 'NONE', #45 ) ;
#166 = MANIFOLD_SOLID_BREP ( 'Boss-Extrude1', #153 ) ;
#167 = COORDINATED_UNIVERSAL_TIME_OFFSET ( 5, 0, .BEHIND. ) ;
#168 = PRODUCT_RELATED_PRODUCT_CATEGORY ( 'detail', '', ( #102 ) ) ;
#169 = CALENDAR_DATE ( 2021, 14, 6 ) ;
#170 = CARTESIAN_POINT ( 'NONE',  ( 1.000000000000000000, 0.000000000000000000, 0.000000000000000000 ) ) ;
#171 = DIRECTION ( 'NONE',  ( 1.000000000000000000, 0.000000000000000000, 0.000000000000000000 ) ) ;
#172 = APPLICATION_CONTEXT ( 'configuration controlled 3d designs of mechanical parts and assemblies' ) ;
#173 = VECTOR ( 'NONE', #150, 1000.000000000000000 ) ;
#174 = CC_DESIGN_PERSON_AND_ORGANIZATION_ASSIGNMENT ( #43, #81, ( #74 ) ) ;
#175 = FACE_OUTER_BOUND ( 'NONE', #35, .T. ) ;
ENDSEC;
END-ISO-10303-21;
