ISO-10303-21;
HEADER;
FILE_DESCRIPTION (( 'STEP AP203' ),
    '1' );
FILE_NAME ('Web Model 11874_15968.step',
    '2020-10-07T17:16:17',
    ( '' ),
    ( '' ),
    'SwSTEP 2.0',
    'SolidWorks 2018',
    '' );
FILE_SCHEMA (( 'CONFIG_CONTROL_DESIGN' ));
ENDSEC;

DATA;
#1 = CARTESIAN_POINT ( 'NONE',  ( 0.0000000000000000000, 0.0000000000000000000, 1.500000000000000000 ) ) ;
#2 = CARTESIAN_POINT ( 'NONE',  ( 0.0000000000000000000, 0.0000000000000000000, 1.500000000000000000 ) ) ;
#3 = PRODUCT_RELATED_PRODUCT_CATEGORY ( 'detail', '', ( #15 ) ) ;
#4 = PERSON_AND_ORGANIZATION ( #24, #112 ) ;
#5 = CARTESIAN_POINT ( 'NONE',  ( 0.0000000000000000000, 0.0000000000000000000, -1.500000000000000000 ) ) ;
#6 = DIRECTION ( 'NONE',  ( 0.0000000000000000000, 0.0000000000000000000, 1.000000000000000000 ) ) ;
#7 = SECURITY_CLASSIFICATION_LEVEL ( 'unclassified' ) ;
#8 = ORIENTED_EDGE ( 'NONE', *, *, #145, .T. ) ;
#9 = APPROVAL_DATE_TIME ( #147, #101 ) ;
#10 = DIRECTION ( 'NONE',  ( -0.0000000000000000000, -0.0000000000000000000, -1.000000000000000000 ) ) ;
#11 = DIRECTION ( 'NONE',  ( 0.0000000000000000000, 0.0000000000000000000, 1.000000000000000000 ) ) ;
#12 = DIRECTION ( 'NONE',  ( 1.000000000000000000, 0.0000000000000000000, 0.0000000000000000000 ) ) ;
#13 = EDGE_LOOP ( 'NONE', ( #151, #88 ) ) ;
#14 = EDGE_CURVE ( 'NONE', #79, #30, #141, .T. ) ;
#15 = PRODUCT ( 'Web Model 11874_15968', 'Web Model 11874_15968', '', ( #125 ) ) ;
#16 = AXIS2_PLACEMENT_3D ( 'NONE', #58, #71, #175 ) ;
#17 = ADVANCED_FACE ( 'NONE', ( #143 ), #146, .T. ) ;
#18 = APPROVAL_PERSON_ORGANIZATION ( #93, #101, #169 ) ;
#19 = DIRECTION ( 'NONE',  ( -0.0000000000000000000, -0.0000000000000000000, -1.000000000000000000 ) ) ;
#20 = AXIS2_PLACEMENT_3D ( 'NONE', #1, #60, #47 ) ;
#21 = DATE_TIME_ROLE ( 'creation_date' ) ;
#22 =( LENGTH_UNIT ( ) NAMED_UNIT ( * ) SI_UNIT ( .MILLI., .METRE. ) );
#23 = APPLICATION_PROTOCOL_DEFINITION ( 'international standard', 'config_control_design', 1994, #172 ) ;
#24 = PERSON ( 'UNSPECIFIED', 'UNSPECIFIED', 'UNSPECIFIED', ('UNSPECIFIED'), ('UNSPECIFIED'), ('UNSPECIFIED') ) ;
#25 = PERSON_AND_ORGANIZATION_ROLE ( 'classification_officer' ) ;
#26 = CARTESIAN_POINT ( 'NONE',  ( 0.0000000000000000000, 0.0000000000000000000, 0.0000000000000000000 ) ) ;
#27 = SECURITY_CLASSIFICATION ( '', '', #7 ) ;
#28 = ORIENTED_EDGE ( 'NONE', *, *, #55, .T. ) ;
#29 = COORDINATED_UNIVERSAL_TIME_OFFSET ( 5, 0, .BEHIND. ) ;
#30 = VERTEX_POINT ( 'NONE', #136 ) ;
#31 = CARTESIAN_POINT ( 'NONE',  ( -12.69999999999999929, 0.0000000000000000000, 1.500000000000000000 ) ) ;
#32 = COORDINATED_UNIVERSAL_TIME_OFFSET ( 5, 0, .BEHIND. ) ;
#33 = DIRECTION ( 'NONE',  ( 1.000000000000000000, 0.0000000000000000000, -0.0000000000000000000 ) ) ;
#34 = DIRECTION ( 'NONE',  ( 0.0000000000000000000, 0.0000000000000000000, 1.000000000000000000 ) ) ;
#35 = LINE ( 'NONE', #31, #84 ) ;
#36 = CARTESIAN_POINT ( 'NONE',  ( 0.0000000000000000000, 0.0000000000000000000, 1.500000000000000000 ) ) ;
#37 = ADVANCED_BREP_SHAPE_REPRESENTATION ( 'Web Model 11874_15968', ( #116, #61 ), #132 ) ;
#38 = DIRECTION ( 'NONE',  ( 1.000000000000000000, 0.0000000000000000000, 0.0000000000000000000 ) ) ;
#39 = CC_DESIGN_SECURITY_CLASSIFICATION ( #27, ( #163 ) ) ;
#40 = CARTESIAN_POINT ( 'NONE',  ( -12.69999999999999929, 0.0000000000000000000, -1.500000000000000000 ) ) ;
#41 = PERSON_AND_ORGANIZATION_ROLE ( 'creator' ) ;
#42 = PERSON_AND_ORGANIZATION ( #24, #112 ) ;
#43 = CC_DESIGN_APPROVAL ( #118, ( #27 ) ) ;
#44 = DATE_AND_TIME ( #130, #56 ) ;
#45 = APPROVAL_PERSON_ORGANIZATION ( #4, #92, #52 ) ;
#46 = APPROVAL_PERSON_ORGANIZATION ( #173, #118, #140 ) ;
#47 = DIRECTION ( 'NONE',  ( 1.000000000000000000, 0.0000000000000000000, 0.0000000000000000000 ) ) ;
#48 = PRODUCT_DEFINITION ( 'UNKNOWN', '', #163, #166 ) ;
#49 = COORDINATED_UNIVERSAL_TIME_OFFSET ( 5, 0, .BEHIND. ) ;
#50 = CALENDAR_DATE ( 2020, 7, 10 ) ;
#51 = SHAPE_DEFINITION_REPRESENTATION ( #57, #37 ) ;
#52 = APPROVAL_ROLE ( '' ) ;
#53 = APPROVAL_STATUS ( 'not_yet_approved' ) ;
#54 =( NAMED_UNIT ( * ) SI_UNIT ( $, .STERADIAN. ) SOLID_ANGLE_UNIT ( ) );
#55 = EDGE_CURVE ( 'NONE', #79, #135, #91, .T. ) ;
#56 = LOCAL_TIME ( 13, 16, 17.00000000000000000, #29 ) ;
#57 = PRODUCT_DEFINITION_SHAPE ( 'NONE', 'NONE',  #48 ) ;
#58 = CARTESIAN_POINT ( 'NONE',  ( 0.0000000000000000000, 0.0000000000000000000, 1.500000000000000000 ) ) ;
#59 = VECTOR ( 'NONE', #19, 1000.000000000000000 ) ;
#60 = DIRECTION ( 'NONE',  ( 0.0000000000000000000, 0.0000000000000000000, 1.000000000000000000 ) ) ;
#61 = AXIS2_PLACEMENT_3D ( 'NONE', #26, #80, #78 ) ;
#62 = PLANE ( 'NONE',  #124 ) ;
#63 = PERSON_AND_ORGANIZATION ( #24, #112 ) ;
#64 = DIRECTION ( 'NONE',  ( 0.0000000000000000000, 0.0000000000000000000, 1.000000000000000000 ) ) ;
#65 = EDGE_LOOP ( 'NONE', ( #8, #28 ) ) ;
#66 = ADVANCED_FACE ( 'NONE', ( #137 ), #115, .T. ) ;
#67 = CC_DESIGN_DATE_AND_TIME_ASSIGNMENT ( #44, #21, ( #48 ) ) ;
#68 = CIRCLE ( 'NONE', #159, 12.69999999999999929 ) ;
#69 = CC_DESIGN_APPROVAL ( #92, ( #163 ) ) ;
#70 = PERSON_AND_ORGANIZATION ( #24, #112 ) ;
#71 = DIRECTION ( 'NONE',  ( -0.0000000000000000000, -0.0000000000000000000, -1.000000000000000000 ) ) ;
#72 = CARTESIAN_POINT ( 'NONE',  ( 12.69999999999999929, 1.555301434917138433E-15, 1.500000000000000000 ) ) ;
#73 = CIRCLE ( 'NONE', #129, 12.69999999999999929 ) ;
#74 = ORIENTED_EDGE ( 'NONE', *, *, #14, .F. ) ;
#75 = PERSON_AND_ORGANIZATION ( #24, #112 ) ;
#76 = PERSON_AND_ORGANIZATION_ROLE ( 'design_supplier' ) ;
#77 = AXIS2_PLACEMENT_3D ( 'NONE', #104, #6, #33 ) ;
#78 = DIRECTION ( 'NONE',  ( 1.000000000000000000, 0.0000000000000000000, 0.0000000000000000000 ) ) ;
#79 = VERTEX_POINT ( 'NONE', #90 ) ;
#80 = DIRECTION ( 'NONE',  ( 0.0000000000000000000, 0.0000000000000000000, 1.000000000000000000 ) ) ;
#81 = PERSON_AND_ORGANIZATION_ROLE ( 'design_owner' ) ;
#82 = CLOSED_SHELL ( 'NONE', ( #17, #66, #83, #162 ) ) ;
#83 = ADVANCED_FACE ( 'NONE', ( #167 ), #138, .T. ) ;
#84 = VECTOR ( 'NONE', #10, 1000.000000000000000 ) ;
#85 = CC_DESIGN_PERSON_AND_ORGANIZATION_ASSIGNMENT ( #70, #25, ( #27 ) ) ;
#86 = PERSON_AND_ORGANIZATION ( #24, #112 ) ;
#87 = DATE_AND_TIME ( #50, #134 ) ;
#88 = ORIENTED_EDGE ( 'NONE', *, *, #98, .F. ) ;
#89 = EDGE_LOOP ( 'NONE', ( #170, #122, #97, #126 ) ) ;
#90 = CARTESIAN_POINT ( 'NONE',  ( 12.69999999999999929, 1.555301434917138433E-15, 1.500000000000000000 ) ) ;
#91 = CIRCLE ( 'NONE', #20, 12.69999999999999929 ) ;
#92 = APPROVAL ( #53, 'UNSPECIFIED' ) ;
#93 = PERSON_AND_ORGANIZATION ( #24, #112 ) ;
#94 = DIRECTION ( 'NONE',  ( 0.0000000000000000000, 0.0000000000000000000, 1.000000000000000000 ) ) ;
#95 = CALENDAR_DATE ( 2020, 7, 10 ) ;
#96 = DIRECTION ( 'NONE',  ( 1.000000000000000000, 0.0000000000000000000, -0.0000000000000000000 ) ) ;
#97 = ORIENTED_EDGE ( 'NONE', *, *, #98, .T. ) ;
#98 = EDGE_CURVE ( 'NONE', #30, #128, #73, .T. ) ;
#99 = EDGE_CURVE ( 'NONE', #135, #128, #35, .T. ) ;
#100 = COORDINATED_UNIVERSAL_TIME_OFFSET ( 5, 0, .BEHIND. ) ;
#101 = APPROVAL ( #142, 'UNSPECIFIED' ) ;
#102 = DIRECTION ( 'NONE',  ( -0.0000000000000000000, -0.0000000000000000000, -1.000000000000000000 ) ) ;
#103 = DATE_AND_TIME ( #95, #165 ) ;
#104 = CARTESIAN_POINT ( 'NONE',  ( 0.0000000000000000000, 0.0000000000000000000, 1.500000000000000000 ) ) ;
#105 = AXIS2_PLACEMENT_3D ( 'NONE', #2, #102, #133 ) ;
#106 = PERSON_AND_ORGANIZATION_ROLE ( 'creator' ) ;
#107 = APPLICATION_CONTEXT ( 'configuration controlled 3d designs of mechanical parts and assemblies' ) ;
#108 = AXIS2_PLACEMENT_3D ( 'NONE', #158, #64, #12 ) ;
#109 = CARTESIAN_POINT ( 'NONE',  ( 0.0000000000000000000, 0.0000000000000000000, -1.500000000000000000 ) ) ;
#110 = CALENDAR_DATE ( 2020, 7, 10 ) ;
#111 = CC_DESIGN_PERSON_AND_ORGANIZATION_ASSIGNMENT ( #75, #76, ( #163 ) ) ;
#112 = ORGANIZATION ( 'UNSPECIFIED', 'UNSPECIFIED', '' ) ;
#113 = CC_DESIGN_DATE_AND_TIME_ASSIGNMENT ( #155, #156, ( #27 ) ) ;
#114 = EDGE_CURVE ( 'NONE', #128, #30, #139, .T. ) ;
#115 = CYLINDRICAL_SURFACE ( 'NONE', #105, 12.69999999999999929 ) ;
#116 = MANIFOLD_SOLID_BREP ( 'Boss-Extrude1', #82 ) ;
#117 = CC_DESIGN_PERSON_AND_ORGANIZATION_ASSIGNMENT ( #86, #81, ( #15 ) ) ;
#118 = APPROVAL ( #120, 'UNSPECIFIED' ) ;
#119 = FACE_OUTER_BOUND ( 'NONE', #13, .T. ) ;
#120 = APPROVAL_STATUS ( 'not_yet_approved' ) ;
#121 = APPLICATION_PROTOCOL_DEFINITION ( 'international standard', 'config_control_design', 1994, #107 ) ;
#122 = ORIENTED_EDGE ( 'NONE', *, *, #14, .T. ) ;
#123 = DIRECTION ( 'NONE',  ( 1.000000000000000000, 0.0000000000000000000, 0.0000000000000000000 ) ) ;
#124 = AXIS2_PLACEMENT_3D ( 'NONE', #109, #94, #96 ) ;
#125 = MECHANICAL_CONTEXT ( 'NONE', #172, 'mechanical' ) ;
#126 = ORIENTED_EDGE ( 'NONE', *, *, #99, .F. ) ;
#127 = ORIENTED_EDGE ( 'NONE', *, *, #114, .T. ) ;
#128 = VERTEX_POINT ( 'NONE', #40 ) ;
#129 = AXIS2_PLACEMENT_3D ( 'NONE', #5, #11, #123 ) ;
#130 = CALENDAR_DATE ( 2020, 7, 10 ) ;
#131 = APPROVAL_DATE_TIME ( #103, #118 ) ;
#132 =( GEOMETRIC_REPRESENTATION_CONTEXT ( 3 ) GLOBAL_UNCERTAINTY_ASSIGNED_CONTEXT ( ( #154 ) ) GLOBAL_UNIT_ASSIGNED_CONTEXT ( ( #22, #144, #54 ) ) REPRESENTATION_CONTEXT ( 'NONE', 'WORKASPACE' ) );
#133 = DIRECTION ( 'NONE',  ( -1.000000000000000000, 0.0000000000000000000, 0.0000000000000000000 ) ) ;
#134 = LOCAL_TIME ( 13, 16, 17.00000000000000000, #100 ) ;
#135 = VERTEX_POINT ( 'NONE', #153 ) ;
#136 = CARTESIAN_POINT ( 'NONE',  ( 12.69999999999999929, 1.555301434917138433E-15, -1.500000000000000000 ) ) ;
#137 = FACE_OUTER_BOUND ( 'NONE', #150, .T. ) ;
#138 = PLANE ( 'NONE',  #77 ) ;
#139 = CIRCLE ( 'NONE', #108, 12.69999999999999929 ) ;
#140 = APPROVAL_ROLE ( '' ) ;
#141 = LINE ( 'NONE', #72, #59 ) ;
#142 = APPROVAL_STATUS ( 'not_yet_approved' ) ;
#143 = FACE_OUTER_BOUND ( 'NONE', #89, .T. ) ;
#144 =( NAMED_UNIT ( * ) PLANE_ANGLE_UNIT ( ) SI_UNIT ( $, .RADIAN. ) );
#145 = EDGE_CURVE ( 'NONE', #135, #79, #68, .T. ) ;
#146 = CYLINDRICAL_SURFACE ( 'NONE', #16, 12.69999999999999929 ) ;
#147 = DATE_AND_TIME ( #160, #164 ) ;
#148 = CC_DESIGN_PERSON_AND_ORGANIZATION_ASSIGNMENT ( #63, #106, ( #48 ) ) ;
#149 = LOCAL_TIME ( 13, 16, 17.00000000000000000, #32 ) ;
#150 = EDGE_LOOP ( 'NONE', ( #74, #152, #174, #127 ) ) ;
#151 = ORIENTED_EDGE ( 'NONE', *, *, #114, .F. ) ;
#152 = ORIENTED_EDGE ( 'NONE', *, *, #145, .F. ) ;
#153 = CARTESIAN_POINT ( 'NONE',  ( -12.69999999999999929, 0.0000000000000000000, 1.500000000000000000 ) ) ;
#154 = UNCERTAINTY_MEASURE_WITH_UNIT (LENGTH_MEASURE( 1.000000000000000082E-05 ), #22, 'distance_accuracy_value', 'NONE');
#155 = DATE_AND_TIME ( #110, #149 ) ;
#156 = DATE_TIME_ROLE ( 'classification_date' ) ;
#157 = COORDINATED_UNIVERSAL_TIME_OFFSET ( 5, 0, .BEHIND. ) ;
#158 = CARTESIAN_POINT ( 'NONE',  ( 0.0000000000000000000, 0.0000000000000000000, -1.500000000000000000 ) ) ;
#159 = AXIS2_PLACEMENT_3D ( 'NONE', #36, #34, #38 ) ;
#160 = CALENDAR_DATE ( 2020, 7, 10 ) ;
#161 = APPROVAL_DATE_TIME ( #87, #92 ) ;
#162 = ADVANCED_FACE ( 'NONE', ( #119 ), #62, .F. ) ;
#163 = PRODUCT_DEFINITION_FORMATION_WITH_SPECIFIED_SOURCE ( 'ANY', '', #15, .NOT_KNOWN. ) ;
#164 = LOCAL_TIME ( 13, 16, 17.00000000000000000, #49 ) ;
#165 = LOCAL_TIME ( 13, 16, 17.00000000000000000, #157 ) ;
#166 = DESIGN_CONTEXT ( 'detailed design', #107, 'design' ) ;
#167 = FACE_OUTER_BOUND ( 'NONE', #65, .T. ) ;
#168 = CC_DESIGN_APPROVAL ( #101, ( #48 ) ) ;
#169 = APPROVAL_ROLE ( '' ) ;
#170 = ORIENTED_EDGE ( 'NONE', *, *, #55, .F. ) ;
#171 = CC_DESIGN_PERSON_AND_ORGANIZATION_ASSIGNMENT ( #42, #41, ( #163 ) ) ;
#172 = APPLICATION_CONTEXT ( 'configuration controlled 3d designs of mechanical parts and assemblies' ) ;
#173 = PERSON_AND_ORGANIZATION ( #24, #112 ) ;
#174 = ORIENTED_EDGE ( 'NONE', *, *, #99, .T. ) ;
#175 = DIRECTION ( 'NONE',  ( -1.000000000000000000, 0.0000000000000000000, 0.0000000000000000000 ) ) ;
ENDSEC;
END-ISO-10303-21;
