ISO-10303-21;
HEADER;
FILE_DESCRIPTION (( 'STEP AP203' ),
    '1' );
FILE_NAME ('Web Model 47022_48391.step',
    '2017-03-01T18:45:39',
    ( '' ),
    ( '' ),
    'SwSTEP 2.0',
    'SolidWorks 2016',
    '' );
FILE_SCHEMA (( 'CONFIG_CONTROL_DESIGN' ));
ENDSEC;

DATA;
#1 = DIRECTION ( 'NONE',  ( 0.0000000000000000000, 1.000000000000000000, 0.0000000000000000000 ) ) ;
#2 = CC_DESIGN_DATE_AND_TIME_ASSIGNMENT ( #212, #54, ( #48 ) ) ;
#3 = DIRECTION ( 'NONE',  ( 0.0000000000000000000, 0.0000000000000000000, 1.000000000000000000 ) ) ;
#4 = APPROVAL_PERSON_ORGANIZATION ( #35, #46, #197 ) ;
#5 = EDGE_CURVE ( 'NONE', #127, #21, #122, .T. ) ;
#6 = DIRECTION ( 'NONE',  ( 0.0000000000000000000, 0.0000000000000000000, 1.000000000000000000 ) ) ;
#7 = ORIENTED_EDGE ( 'NONE', *, *, #107, .F. ) ;
#8 = CC_DESIGN_PERSON_AND_ORGANIZATION_ASSIGNMENT ( #94, #63, ( #131 ) ) ;
#9 = CARTESIAN_POINT ( 'NONE',  ( 0.0000000000000000000, 12.49999999999999600, 3.000000000000000000 ) ) ;
#10 = VECTOR ( 'NONE', #150, 1000.000000000000000 ) ;
#11 = ORIENTED_EDGE ( 'NONE', *, *, #183, .T. ) ;
#12 = CC_DESIGN_APPROVAL ( #206, ( #48 ) ) ;
#13 = DIRECTION ( 'NONE',  ( -1.000000000000000000, 0.0000000000000000000, 0.0000000000000000000 ) ) ;
#14 = CARTESIAN_POINT ( 'NONE',  ( 0.0000000000000000000, 12.49999999999999600, 0.0000000000000000000 ) ) ;
#15 = DIRECTION ( 'NONE',  ( 1.000000000000000000, 0.0000000000000000000, 0.0000000000000000000 ) ) ;
#16 = EDGE_CURVE ( 'NONE', #51, #190, #77, .T. ) ;
#17 = COORDINATED_UNIVERSAL_TIME_OFFSET ( 5, 0, .BEHIND. ) ;
#18 = APPROVAL_DATE_TIME ( #193, #46 ) ;
#19 = DIRECTION ( 'NONE',  ( 1.982541115402065100E-016, -1.000000000000000000, 0.0000000000000000000 ) ) ;
#20 = ORIENTED_EDGE ( 'NONE', *, *, #149, .T. ) ;
#21 = VERTEX_POINT ( 'NONE', #65 ) ;
#22 = DIRECTION ( 'NONE',  ( 0.0000000000000000000, -0.0000000000000000000, 1.000000000000000000 ) ) ;
#23 = DIRECTION ( 'NONE',  ( 1.000000000000000000, 0.0000000000000000000, 0.0000000000000000000 ) ) ;
#24 = ORIENTED_EDGE ( 'NONE', *, *, #70, .T. ) ;
#25 = LOCAL_TIME ( 13, 45, 39.00000000000000000, #17 ) ;
#26 = DIRECTION ( 'NONE',  ( -0.0000000000000000000, -1.000000000000000000, -0.0000000000000000000 ) ) ;
#27 = EDGE_CURVE ( 'NONE', #33, #21, #179, .T. ) ;
#28 = ADVANCED_FACE ( 'NONE', ( #30 ), #52, .F. ) ;
#29 = CARTESIAN_POINT ( 'NONE',  ( 0.0000000000000000000, 12.49999999999999600, 3.000000000000000000 ) ) ;
#30 = FACE_OUTER_BOUND ( 'NONE', #202, .T. ) ;
#31 = PRODUCT_DEFINITION_SHAPE ( 'NONE', 'NONE',  #48 ) ;
#32 = AXIS2_PLACEMENT_3D ( 'NONE', #125, #101, #22 ) ;
#33 = VERTEX_POINT ( 'NONE', #59 ) ;
#34 =( NAMED_UNIT ( * ) PLANE_ANGLE_UNIT ( ) SI_UNIT ( $, .RADIAN. ) );
#35 = PERSON_AND_ORGANIZATION ( #159, #181 ) ;
#36 = CARTESIAN_POINT ( 'NONE',  ( 0.0000000000000000000, 0.0000000000000000000, 3.000000000000000000 ) ) ;
#37 = VECTOR ( 'NONE', #137, 1000.000000000000000 ) ;
#38 = ORIENTED_EDGE ( 'NONE', *, *, #5, .T. ) ;
#39 = EDGE_CURVE ( 'NONE', #190, #97, #99, .T. ) ;
#40 = VECTOR ( 'NONE', #184, 1000.000000000000000 ) ;
#41 = DIRECTION ( 'NONE',  ( -0.0000000000000000000, -1.000000000000000000, -0.0000000000000000000 ) ) ;
#42 = ORIENTED_EDGE ( 'NONE', *, *, #107, .T. ) ;
#43 = CALENDAR_DATE ( 2017, 1, 3 ) ;
#44 = MECHANICAL_CONTEXT ( 'NONE', #157, 'mechanical' ) ;
#45 = APPLICATION_PROTOCOL_DEFINITION ( 'international standard', 'config_control_design', 1994, #216 ) ;
#46 = APPROVAL ( #146, 'UNSPECIFIED' ) ;
#47 = CC_DESIGN_PERSON_AND_ORGANIZATION_ASSIGNMENT ( #85, #130, ( #215 ) ) ;
#48 = PRODUCT_DEFINITION ( 'UNKNOWN', '', #215, #170 ) ;
#49 = FACE_OUTER_BOUND ( 'NONE', #211, .T. ) ;
#50 = APPROVAL_PERSON_ORGANIZATION ( #132, #206, #95 ) ;
#51 = VERTEX_POINT ( 'NONE', #201 ) ;
#52 = PLANE ( 'NONE',  #72 ) ;
#53 = VERTEX_POINT ( 'NONE', #198 ) ;
#54 = DATE_TIME_ROLE ( 'creation_date' ) ;
#55 = ORIENTED_EDGE ( 'NONE', *, *, #27, .T. ) ;
#56 = LINE ( 'NONE', #91, #37 ) ;
#57 = CARTESIAN_POINT ( 'NONE',  ( 0.0000000000000000000, 0.0000000000000000000, 0.0000000000000000000 ) ) ;
#58 = LINE ( 'NONE', #9, #231 ) ;
#59 = CARTESIAN_POINT ( 'NONE',  ( 17.50000000000000000, 12.50000000000000000, 3.000000000000000000 ) ) ;
#60 = COORDINATED_UNIVERSAL_TIME_OFFSET ( 5, 0, .BEHIND. ) ;
#61 = DATE_TIME_ROLE ( 'classification_date' ) ;
#62 = CARTESIAN_POINT ( 'NONE',  ( 17.50000000000000000, 0.0000000000000000000, 0.0000000000000000000 ) ) ;
#63 = PERSON_AND_ORGANIZATION_ROLE ( 'design_owner' ) ;
#64 = ORIENTED_EDGE ( 'NONE', *, *, #16, .T. ) ;
#65 = CARTESIAN_POINT ( 'NONE',  ( 17.50000000000000000, 12.50000000000000000, 0.0000000000000000000 ) ) ;
#66 = EDGE_CURVE ( 'NONE', #109, #53, #110, .T. ) ;
#67 = ORIENTED_EDGE ( 'NONE', *, *, #66, .F. ) ;
#68 = VECTOR ( 'NONE', #26, 1000.000000000000000 ) ;
#69 = EDGE_LOOP ( 'NONE', ( #38, #136, #98, #11 ) ) ;
#70 = EDGE_CURVE ( 'NONE', #97, #33, #80, .T. ) ;
#71 = COORDINATED_UNIVERSAL_TIME_OFFSET ( 5, 0, .BEHIND. ) ;
#72 = AXIS2_PLACEMENT_3D ( 'NONE', #36, #178, #114 ) ;
#73 = ORIENTED_EDGE ( 'NONE', *, *, #183, .F. ) ;
#74 = PERSON_AND_ORGANIZATION_ROLE ( 'classification_officer' ) ;
#75 = VECTOR ( 'NONE', #23, 1000.000000000000000 ) ;
#76 = AXIS2_PLACEMENT_3D ( 'NONE', #121, #15, #86 ) ;
#77 = LINE ( 'NONE', #102, #68 ) ;
#78 = CARTESIAN_POINT ( 'NONE',  ( 0.0000000000000000000, 0.0000000000000000000, 3.000000000000000000 ) ) ;
#79 = CARTESIAN_POINT ( 'NONE',  ( 0.0000000000000000000, 0.0000000000000000000, 3.000000000000000000 ) ) ;
#80 = LINE ( 'NONE', #89, #141 ) ;
#81 = PLANE ( 'NONE',  #32 ) ;
#82 = ORIENTED_EDGE ( 'NONE', *, *, #96, .T. ) ;
#83 = ORIENTED_EDGE ( 'NONE', *, *, #149, .F. ) ;
#84 = DATE_AND_TIME ( #176, #224 ) ;
#85 = PERSON_AND_ORGANIZATION ( #159, #181 ) ;
#86 = DIRECTION ( 'NONE',  ( 0.0000000000000000000, 0.0000000000000000000, -1.000000000000000000 ) ) ;
#87 = CARTESIAN_POINT ( 'NONE',  ( 0.0000000000000000000, 0.0000000000000000000, 0.0000000000000000000 ) ) ;
#88 = PERSON_AND_ORGANIZATION_ROLE ( 'creator' ) ;
#89 = CARTESIAN_POINT ( 'NONE',  ( 17.50000000000000000, 0.0000000000000000000, 3.000000000000000000 ) ) ;
#90 = LINE ( 'NONE', #221, #75 ) ;
#91 = CARTESIAN_POINT ( 'NONE',  ( 0.0000000000000000000, 12.49999999999999600, 0.0000000000000000000 ) ) ;
#92 = EDGE_CURVE ( 'NONE', #53, #127, #90, .T. ) ;
#93 = APPROVAL_STATUS ( 'not_yet_approved' ) ;
#94 = PERSON_AND_ORGANIZATION ( #159, #181 ) ;
#95 = APPROVAL_ROLE ( '' ) ;
#96 = EDGE_CURVE ( 'NONE', #190, #53, #138, .T. ) ;
#97 = VERTEX_POINT ( 'NONE', #234 ) ;
#98 = ORIENTED_EDGE ( 'NONE', *, *, #70, .F. ) ;
#99 = LINE ( 'NONE', #162, #133 ) ;
#100 = ADVANCED_BREP_SHAPE_REPRESENTATION ( 'Web Model 47022_48391', ( #209, #232 ), #103 ) ;
#101 = DIRECTION ( 'NONE',  ( 0.0000000000000000000, 1.000000000000000000, 0.0000000000000000000 ) ) ;
#102 = CARTESIAN_POINT ( 'NONE',  ( 0.0000000000000000000, 0.0000000000000000000, 3.000000000000000000 ) ) ;
#103 =( GEOMETRIC_REPRESENTATION_CONTEXT ( 3 ) GLOBAL_UNCERTAINTY_ASSIGNED_CONTEXT ( ( #145 ) ) GLOBAL_UNIT_ASSIGNED_CONTEXT ( ( #203, #34, #105 ) ) REPRESENTATION_CONTEXT ( 'NONE', 'WORKASPACE' ) );
#104 = DATE_AND_TIME ( #123, #164 ) ;
#105 =( NAMED_UNIT ( * ) SI_UNIT ( $, .STERADIAN. ) SOLID_ANGLE_UNIT ( ) );
#106 = DIRECTION ( 'NONE',  ( 0.0000000000000000000, 1.000000000000000000, 0.0000000000000000000 ) ) ;
#107 = EDGE_CURVE ( 'NONE', #51, #109, #58, .T. ) ;
#108 = APPROVAL_STATUS ( 'not_yet_approved' ) ;
#109 = VERTEX_POINT ( 'NONE', #14 ) ;
#110 = LINE ( 'NONE', #87, #161 ) ;
#111 = ADVANCED_FACE ( 'NONE', ( #113 ), #236, .F. ) ;
#112 = ADVANCED_FACE ( 'NONE', ( #49 ), #147, .F. ) ;
#113 = FACE_OUTER_BOUND ( 'NONE', #69, .T. ) ;
#114 = DIRECTION ( 'NONE',  ( -1.000000000000000000, 0.0000000000000000000, -0.0000000000000000000 ) ) ;
#115 = ORIENTED_EDGE ( 'NONE', *, *, #92, .F. ) ;
#116 = FACE_OUTER_BOUND ( 'NONE', #143, .T. ) ;
#117 = ORIENTED_EDGE ( 'NONE', *, *, #152, .T. ) ;
#118 = DIRECTION ( 'NONE',  ( 0.0000000000000000000, 0.0000000000000000000, -1.000000000000000000 ) ) ;
#119 = PERSON_AND_ORGANIZATION_ROLE ( 'creator' ) ;
#120 = PERSON_AND_ORGANIZATION ( #159, #181 ) ;
#121 = CARTESIAN_POINT ( 'NONE',  ( 0.0000000000000000000, 0.0000000000000000000, 3.000000000000000000 ) ) ;
#122 = LINE ( 'NONE', #140, #187 ) ;
#123 = CALENDAR_DATE ( 2017, 1, 3 ) ;
#124 = DIRECTION ( 'NONE',  ( -1.000000000000000000, 0.0000000000000000000, -0.0000000000000000000 ) ) ;
#125 = CARTESIAN_POINT ( 'NONE',  ( 0.0000000000000000000, 0.0000000000000000000, 3.000000000000000000 ) ) ;
#126 = VECTOR ( 'NONE', #228, 1000.000000000000000 ) ;
#127 = VERTEX_POINT ( 'NONE', #62 ) ;
#128 = CALENDAR_DATE ( 2017, 1, 3 ) ;
#129 = LOCAL_TIME ( 13, 45, 39.00000000000000000, #71 ) ;
#130 = PERSON_AND_ORGANIZATION_ROLE ( 'design_supplier' ) ;
#131 = PRODUCT ( 'Web Model 47022_48391', 'Web Model 47022_48391', '', ( #44 ) ) ;
#132 = PERSON_AND_ORGANIZATION ( #159, #181 ) ;
#133 = VECTOR ( 'NONE', #225, 1000.000000000000000 ) ;
#134 = CARTESIAN_POINT ( 'NONE',  ( 0.0000000000000000000, 0.0000000000000000000, 0.0000000000000000000 ) ) ;
#135 = DIRECTION ( 'NONE',  ( -0.0000000000000000000, -0.0000000000000000000, -1.000000000000000000 ) ) ;
#136 = ORIENTED_EDGE ( 'NONE', *, *, #27, .F. ) ;
#137 = DIRECTION ( 'NONE',  ( -1.000000000000000000, -1.982541115402065100E-016, -0.0000000000000000000 ) ) ;
#138 = LINE ( 'NONE', #79, #126 ) ;
#139 = EDGE_LOOP ( 'NONE', ( #67, #83, #213, #115 ) ) ;
#140 = CARTESIAN_POINT ( 'NONE',  ( 17.50000000000000000, 0.0000000000000000000, 0.0000000000000000000 ) ) ;
#141 = VECTOR ( 'NONE', #1, 1000.000000000000000 ) ;
#142 = ORIENTED_EDGE ( 'NONE', *, *, #92, .T. ) ;
#143 = EDGE_LOOP ( 'NONE', ( #142, #73, #156, #82 ) ) ;
#144 = CC_DESIGN_PERSON_AND_ORGANIZATION_ASSIGNMENT ( #148, #119, ( #215 ) ) ;
#145 = UNCERTAINTY_MEASURE_WITH_UNIT (LENGTH_MEASURE( 1.000000000000000100E-005 ), #203, 'distance_accuracy_value', 'NONE');
#146 = APPROVAL_STATUS ( 'not_yet_approved' ) ;
#147 = PLANE ( 'NONE',  #76 ) ;
#148 = PERSON_AND_ORGANIZATION ( #159, #181 ) ;
#149 = EDGE_CURVE ( 'NONE', #21, #109, #56, .T. ) ;
#150 = DIRECTION ( 'NONE',  ( -1.000000000000000000, -1.982541115402065100E-016, -0.0000000000000000000 ) ) ;
#151 = FACE_OUTER_BOUND ( 'NONE', #139, .T. ) ;
#152 = EDGE_CURVE ( 'NONE', #33, #51, #210, .T. ) ;
#153 = DIRECTION ( 'NONE',  ( 1.000000000000000000, 1.982541115402065100E-016, 0.0000000000000000000 ) ) ;
#154 = ADVANCED_FACE ( 'NONE', ( #116 ), #81, .F. ) ;
#155 = CARTESIAN_POINT ( 'NONE',  ( 0.0000000000000000000, 12.49999999999999600, 3.000000000000000000 ) ) ;
#156 = ORIENTED_EDGE ( 'NONE', *, *, #39, .F. ) ;
#157 = APPLICATION_CONTEXT ( 'configuration controlled 3d designs of mechanical parts and assemblies' ) ;
#158 = CARTESIAN_POINT ( 'NONE',  ( 17.50000000000000000, 12.50000000000000000, 3.000000000000000000 ) ) ;
#159 = PERSON ( 'UNSPECIFIED', 'UNSPECIFIED', 'UNSPECIFIED', ('UNSPECIFIED'), ('UNSPECIFIED'), ('UNSPECIFIED') ) ;
#160 = CC_DESIGN_APPROVAL ( #46, ( #215 ) ) ;
#161 = VECTOR ( 'NONE', #41, 1000.000000000000000 ) ;
#162 = CARTESIAN_POINT ( 'NONE',  ( 0.0000000000000000000, 0.0000000000000000000, 3.000000000000000000 ) ) ;
#163 = AXIS2_PLACEMENT_3D ( 'NONE', #207, #13, #3 ) ;
#164 = LOCAL_TIME ( 13, 45, 39.00000000000000000, #60 ) ;
#165 = APPLICATION_PROTOCOL_DEFINITION ( 'international standard', 'config_control_design', 1994, #157 ) ;
#166 = PRODUCT_RELATED_PRODUCT_CATEGORY ( 'detail', '', ( #131 ) ) ;
#167 = ORIENTED_EDGE ( 'NONE', *, *, #152, .F. ) ;
#168 = ORIENTED_EDGE ( 'NONE', *, *, #16, .F. ) ;
#169 = SECURITY_CLASSIFICATION_LEVEL ( 'unclassified' ) ;
#170 = DESIGN_CONTEXT ( 'detailed design', #216, 'design' ) ;
#171 = CC_DESIGN_SECURITY_CLASSIFICATION ( #237, ( #215 ) ) ;
#172 = COORDINATED_UNIVERSAL_TIME_OFFSET ( 5, 0, .BEHIND. ) ;
#173 = AXIS2_PLACEMENT_3D ( 'NONE', #29, #19, #153 ) ;
#174 = APPROVAL_DATE_TIME ( #191, #206 ) ;
#175 = ADVANCED_FACE ( 'NONE', ( #151 ), #185, .T. ) ;
#176 = CALENDAR_DATE ( 2017, 1, 3 ) ;
#177 = COORDINATED_UNIVERSAL_TIME_OFFSET ( 5, 0, .BEHIND. ) ;
#178 = DIRECTION ( 'NONE',  ( 0.0000000000000000000, 0.0000000000000000000, -1.000000000000000000 ) ) ;
#179 = LINE ( 'NONE', #158, #230 ) ;
#180 = ORIENTED_EDGE ( 'NONE', *, *, #66, .T. ) ;
#181 = ORGANIZATION ( 'UNSPECIFIED', 'UNSPECIFIED', '' ) ;
#182 = FACE_OUTER_BOUND ( 'NONE', #218, .T. ) ;
#183 = EDGE_CURVE ( 'NONE', #97, #127, #196, .T. ) ;
#184 = DIRECTION ( 'NONE',  ( -0.0000000000000000000, -0.0000000000000000000, -1.000000000000000000 ) ) ;
#185 = PLANE ( 'NONE',  #220 ) ;
#186 = CC_DESIGN_APPROVAL ( #200, ( #237 ) ) ;
#187 = VECTOR ( 'NONE', #106, 1000.000000000000000 ) ;
#188 = PERSON_AND_ORGANIZATION ( #159, #181 ) ;
#189 = APPROVAL_DATE_TIME ( #104, #200 ) ;
#190 = VERTEX_POINT ( 'NONE', #78 ) ;
#191 = DATE_AND_TIME ( #233, #129 ) ;
#192 = LOCAL_TIME ( 13, 45, 39.00000000000000000, #177 ) ;
#193 = DATE_AND_TIME ( #128, #25 ) ;
#194 = ORIENTED_EDGE ( 'NONE', *, *, #96, .F. ) ;
#195 = CLOSED_SHELL ( 'NONE', ( #112, #154, #111, #235, #28, #175 ) ) ;
#196 = LINE ( 'NONE', #204, #40 ) ;
#197 = APPROVAL_ROLE ( '' ) ;
#198 = CARTESIAN_POINT ( 'NONE',  ( 0.0000000000000000000, 0.0000000000000000000, 0.0000000000000000000 ) ) ;
#199 = APPROVAL_ROLE ( '' ) ;
#200 = APPROVAL ( #108, 'UNSPECIFIED' ) ;
#201 = CARTESIAN_POINT ( 'NONE',  ( 0.0000000000000000000, 12.49999999999999600, 3.000000000000000000 ) ) ;
#202 = EDGE_LOOP ( 'NONE', ( #64, #219, #24, #117 ) ) ;
#203 =( LENGTH_UNIT ( ) NAMED_UNIT ( * ) SI_UNIT ( .MILLI., .METRE. ) );
#204 = CARTESIAN_POINT ( 'NONE',  ( 17.50000000000000000, 0.0000000000000000000, 3.000000000000000000 ) ) ;
#205 = SHAPE_DEFINITION_REPRESENTATION ( #31, #100 ) ;
#206 = APPROVAL ( #93, 'UNSPECIFIED' ) ;
#207 = CARTESIAN_POINT ( 'NONE',  ( 17.50000000000000000, 0.0000000000000000000, 3.000000000000000000 ) ) ;
#208 = PERSON_AND_ORGANIZATION ( #159, #181 ) ;
#209 = MANIFOLD_SOLID_BREP ( 'Extrude1', #195 ) ;
#210 = LINE ( 'NONE', #155, #10 ) ;
#211 = EDGE_LOOP ( 'NONE', ( #180, #194, #168, #42 ) ) ;
#212 = DATE_AND_TIME ( #43, #192 ) ;
#213 = ORIENTED_EDGE ( 'NONE', *, *, #5, .F. ) ;
#214 = CC_DESIGN_DATE_AND_TIME_ASSIGNMENT ( #84, #61, ( #237 ) ) ;
#215 = PRODUCT_DEFINITION_FORMATION_WITH_SPECIFIED_SOURCE ( 'ANY', '', #131, .NOT_KNOWN. ) ;
#216 = APPLICATION_CONTEXT ( 'configuration controlled 3d designs of mechanical parts and assemblies' ) ;
#217 = DIRECTION ( 'NONE',  ( 1.000000000000000000, 0.0000000000000000000, 0.0000000000000000000 ) ) ;
#218 = EDGE_LOOP ( 'NONE', ( #20, #7, #167, #55 ) ) ;
#219 = ORIENTED_EDGE ( 'NONE', *, *, #39, .T. ) ;
#220 = AXIS2_PLACEMENT_3D ( 'NONE', #134, #118, #124 ) ;
#221 = CARTESIAN_POINT ( 'NONE',  ( 0.0000000000000000000, 0.0000000000000000000, 0.0000000000000000000 ) ) ;
#222 = DIRECTION ( 'NONE',  ( -0.0000000000000000000, -0.0000000000000000000, -1.000000000000000000 ) ) ;
#223 = APPROVAL_PERSON_ORGANIZATION ( #208, #200, #199 ) ;
#224 = LOCAL_TIME ( 13, 45, 39.00000000000000000, #172 ) ;
#225 = DIRECTION ( 'NONE',  ( 1.000000000000000000, 0.0000000000000000000, 0.0000000000000000000 ) ) ;
#226 = CC_DESIGN_PERSON_AND_ORGANIZATION_ASSIGNMENT ( #188, #74, ( #237 ) ) ;
#227 = PLANE ( 'NONE',  #173 ) ;
#228 = DIRECTION ( 'NONE',  ( -0.0000000000000000000, -0.0000000000000000000, -1.000000000000000000 ) ) ;
#229 = CC_DESIGN_PERSON_AND_ORGANIZATION_ASSIGNMENT ( #120, #88, ( #48 ) ) ;
#230 = VECTOR ( 'NONE', #135, 1000.000000000000000 ) ;
#231 = VECTOR ( 'NONE', #222, 1000.000000000000000 ) ;
#232 = AXIS2_PLACEMENT_3D ( 'NONE', #57, #6, #217 ) ;
#233 = CALENDAR_DATE ( 2017, 1, 3 ) ;
#234 = CARTESIAN_POINT ( 'NONE',  ( 17.50000000000000000, 0.0000000000000000000, 3.000000000000000000 ) ) ;
#235 = ADVANCED_FACE ( 'NONE', ( #182 ), #227, .F. ) ;
#236 = PLANE ( 'NONE',  #163 ) ;
#237 = SECURITY_CLASSIFICATION ( '', '', #169 ) ;
ENDSEC;
END-ISO-10303-21;
