ISO-10303-21;
HEADER;
FILE_DESCRIPTION (( 'STEP AP203' ),
    '1' );
FILE_NAME ('Web Model 47047_47047.step',
    '2017-06-06T16:59:09',
    ( '' ),
    ( '' ),
    'SwSTEP 2.0',
    'SolidWorks 2016',
    '' );
FILE_SCHEMA (( 'CONFIG_CONTROL_DESIGN' ));
ENDSEC;

DATA;
#1 = EDGE_CURVE ( 'NONE', #64, #297, #314, .T. ) ;
#2 = COORDINATED_UNIVERSAL_TIME_OFFSET ( 5, 0, .BEHIND. ) ;
#3 = CALENDAR_DATE ( 2017, 6, 6 ) ;
#4 = ORIENTED_EDGE ( 'NONE', *, *, #296, .F. ) ;
#5 = CARTESIAN_POINT ( 'NONE',  ( -7.500000000000000000, 0.0000000000000000000, 7.500000000000000000 ) ) ;
#6 = EDGE_LOOP ( 'NONE', ( #284, #246, #306, #209 ) ) ;
#7 = APPROVAL_STATUS ( 'not_yet_approved' ) ;
#8 = VECTOR ( 'NONE', #273, 1000.000000000000100 ) ;
#9 = CARTESIAN_POINT ( 'NONE',  ( 0.0000000000000000000, 0.0000000000000000000, 7.500000000000000000 ) ) ;
#10 = DATE_TIME_ROLE ( 'classification_date' ) ;
#11 = EDGE_CURVE ( 'NONE', #40, #64, #197, .T. ) ;
#12 = ORIENTED_EDGE ( 'NONE', *, *, #30, .F. ) ;
#13 = MANIFOLD_SOLID_BREP ( 'Boss-Extrude2', #272 ) ;
#14 = APPROVAL_DATE_TIME ( #158, #252 ) ;
#15 = CARTESIAN_POINT ( 'NONE',  ( -6.133173666733495600E-016, -6.133173666733495600E-016, 7.500000000000000000 ) ) ;
#16 = MANIFOLD_SOLID_BREP ( 'Boss-Extrude3', #174 ) ;
#17 = CC_DESIGN_PERSON_AND_ORGANIZATION_ASSIGNMENT ( #260, #65, ( #318 ) ) ;
#18 = VERTEX_POINT ( 'NONE', #59 ) ;
#19 = FACE_OUTER_BOUND ( 'NONE', #157, .T. ) ;
#20 = APPROVAL_ROLE ( '' ) ;
#21 = LINE ( 'NONE', #84, #293 ) ;
#22 = DIRECTION ( 'NONE',  ( 0.0000000000000000000, 0.0000000000000000000, 1.000000000000000000 ) ) ;
#23 = AXIS2_PLACEMENT_3D ( 'NONE', #110, #141, #134 ) ;
#24 = CARTESIAN_POINT ( 'NONE',  ( -7.500000000000000000, 7.499999999999998200, 7.500000000000000000 ) ) ;
#25 = EDGE_LOOP ( 'NONE', ( #277, #250, #124, #108 ) ) ;
#26 = CARTESIAN_POINT ( 'NONE',  ( -6.133173666733495600E-016, -6.133173666733495600E-016, 7.500000000000000000 ) ) ;
#27 = DIRECTION ( 'NONE',  ( -0.7071067811865474600, 0.7071067811865474600, 0.0000000000000000000 ) ) ;
#28 = LOCAL_TIME ( 12, 59, 9.000000000000000000, #154 ) ;
#29 = ORIENTED_EDGE ( 'NONE', *, *, #186, .T. ) ;
#30 = EDGE_CURVE ( 'NONE', #18, #310, #71, .T. ) ;
#31 = ADVANCED_FACE ( 'NONE', ( #96 ), #282, .F. ) ;
#32 = CC_DESIGN_DATE_AND_TIME_ASSIGNMENT ( #315, #10, ( #318 ) ) ;
#33 = DIRECTION ( 'NONE',  ( 1.000000000000000000, 0.0000000000000000000, 0.0000000000000000000 ) ) ;
#34 = CARTESIAN_POINT ( 'NONE',  ( -6.133173666733495600E-016, -6.133173666733495600E-016, -7.500000000000000000 ) ) ;
#35 = SHAPE_DEFINITION_REPRESENTATION ( #97, #130 ) ;
#36 = VERTEX_POINT ( 'NONE', #122 ) ;
#37 = CARTESIAN_POINT ( 'NONE',  ( -7.500000000000000000, 0.0000000000000000000, 7.500000000000000000 ) ) ;
#38 = PLANE ( 'NONE',  #241 ) ;
#39 =( GEOMETRIC_REPRESENTATION_CONTEXT ( 3 ) GLOBAL_UNCERTAINTY_ASSIGNED_CONTEXT ( ( #72 ) ) GLOBAL_UNIT_ASSIGNED_CONTEXT ( ( #153, #155, #276 ) ) REPRESENTATION_CONTEXT ( 'NONE', 'WORKASPACE' ) );
#40 = VERTEX_POINT ( 'NONE', #101 ) ;
#41 = PLANE ( 'NONE',  #112 ) ;
#42 = PLANE ( 'NONE',  #56 ) ;
#43 = PLANE ( 'NONE',  #308 ) ;
#44 = DATE_TIME_ROLE ( 'creation_date' ) ;
#45 = FACE_OUTER_BOUND ( 'NONE', #162, .T. ) ;
#46 = DIRECTION ( 'NONE',  ( 0.0000000000000000000, 1.000000000000000000, -0.0000000000000000000 ) ) ;
#47 = APPROVAL_PERSON_ORGANIZATION ( #169, #49, #211 ) ;
#48 = CALENDAR_DATE ( 2017, 6, 6 ) ;
#49 = APPROVAL ( #7, 'UNSPECIFIED' ) ;
#50 = CARTESIAN_POINT ( 'NONE',  ( -6.133173666733495600E-016, -6.133173666733495600E-016, -7.500000000000000000 ) ) ;
#51 = VERTEX_POINT ( 'NONE', #171 ) ;
#52 = CALENDAR_DATE ( 2017, 6, 6 ) ;
#53 = ADVANCED_FACE ( 'NONE', ( #286 ), #41, .F. ) ;
#54 = LOCAL_TIME ( 12, 59, 9.000000000000000000, #202 ) ;
#55 = VECTOR ( 'NONE', #207, 1000.000000000000000 ) ;
#56 = AXIS2_PLACEMENT_3D ( 'NONE', #9, #287, #69 ) ;
#57 = LINE ( 'NONE', #229, #179 ) ;
#58 = PERSON_AND_ORGANIZATION ( #102, #204 ) ;
#59 = CARTESIAN_POINT ( 'NONE',  ( -7.500000000000000000, 7.499999999999998200, 7.500000000000000000 ) ) ;
#60 = PERSON_AND_ORGANIZATION_ROLE ( 'design_owner' ) ;
#61 = ORIENTED_EDGE ( 'NONE', *, *, #232, .F. ) ;
#62 = APPROVAL_DATE_TIME ( #192, #49 ) ;
#63 = EDGE_CURVE ( 'NONE', #40, #93, #85, .T. ) ;
#64 = VERTEX_POINT ( 'NONE', #111 ) ;
#65 = PERSON_AND_ORGANIZATION_ROLE ( 'classification_officer' ) ;
#66 = LOCAL_TIME ( 12, 59, 9.000000000000000000, #240 ) ;
#67 = EDGE_CURVE ( 'NONE', #36, #188, #21, .T. ) ;
#68 = CARTESIAN_POINT ( 'NONE',  ( 0.0000000000000000000, 0.0000000000000000000, 7.500000000000000000 ) ) ;
#69 = DIRECTION ( 'NONE',  ( 1.000000000000000000, 0.0000000000000000000, 0.0000000000000000000 ) ) ;
#70 = CC_DESIGN_APPROVAL ( #49, ( #318 ) ) ;
#71 = LINE ( 'NONE', #89, #175 ) ;
#72 = UNCERTAINTY_MEASURE_WITH_UNIT (LENGTH_MEASURE( 1.000000000000000100E-005 ), #153, 'distance_accuracy_value', 'NONE');
#73 = VECTOR ( 'NONE', #223, 1000.000000000000000 ) ;
#74 = VECTOR ( 'NONE', #259, 1000.000000000000100 ) ;
#75 = CARTESIAN_POINT ( 'NONE',  ( -6.133173666733495600E-016, -6.133173666733495600E-016, 7.500000000000000000 ) ) ;
#76 = DIRECTION ( 'NONE',  ( 0.0000000000000000000, 0.0000000000000000000, 1.000000000000000000 ) ) ;
#77 = ADVANCED_FACE ( 'NONE', ( #226 ), #266, .T. ) ;
#78 = EDGE_CURVE ( 'NONE', #168, #51, #57, .T. ) ;
#79 = VERTEX_POINT ( 'NONE', #195 ) ;
#80 = AXIS2_PLACEMENT_3D ( 'NONE', #317, #253, #140 ) ;
#81 = ADVANCED_FACE ( 'NONE', ( #264 ), #115, .T. ) ;
#82 = CC_DESIGN_SECURITY_CLASSIFICATION ( #318, ( #237 ) ) ;
#83 = DIRECTION ( 'NONE',  ( 0.7071067811865474600, -0.7071067811865474600, 0.0000000000000000000 ) ) ;
#84 = CARTESIAN_POINT ( 'NONE',  ( -7.500000000000000000, -7.499999999999999100, 7.500000000000000000 ) ) ;
#85 = LINE ( 'NONE', #24, #55 ) ;
#86 = LINE ( 'NONE', #137, #269 ) ;
#87 = CARTESIAN_POINT ( 'NONE',  ( 7.499999999999998200, -7.500000000000000000, 7.500000000000000000 ) ) ;
#88 = LINE ( 'NONE', #34, #74 ) ;
#89 = CARTESIAN_POINT ( 'NONE',  ( 0.0000000000000000000, 7.499999999999999100, 7.500000000000000000 ) ) ;
#90 = EDGE_CURVE ( 'NONE', #310, #51, #196, .T. ) ;
#91 = VERTEX_POINT ( 'NONE', #128 ) ;
#92 = CARTESIAN_POINT ( 'NONE',  ( -7.500000000000000000, 0.0000000000000000000, -7.500000000000000000 ) ) ;
#93 = VERTEX_POINT ( 'NONE', #319 ) ;
#94 = DIRECTION ( 'NONE',  ( 1.000000000000000000, 0.0000000000000000000, 0.0000000000000000000 ) ) ;
#95 = CARTESIAN_POINT ( 'NONE',  ( 0.0000000000000000000, -7.499999999999999100, -7.500000000000000000 ) ) ;
#96 = FACE_OUTER_BOUND ( 'NONE', #235, .T. ) ;
#97 = PRODUCT_DEFINITION_SHAPE ( 'NONE', 'NONE',  #152 ) ;
#98 = CARTESIAN_POINT ( 'NONE',  ( 7.499999999999998200, 0.0000000000000000000, 7.500000000000000000 ) ) ;
#99 = PLANE ( 'NONE',  #206 ) ;
#100 = PRODUCT_RELATED_PRODUCT_CATEGORY ( 'detail', '', ( #219 ) ) ;
#101 = CARTESIAN_POINT ( 'NONE',  ( -7.500000000000000000, 7.499999999999998200, 7.500000000000000000 ) ) ;
#102 = PERSON ( 'UNSPECIFIED', 'UNSPECIFIED', 'UNSPECIFIED', ('UNSPECIFIED'), ('UNSPECIFIED'), ('UNSPECIFIED') ) ;
#103 = PERSON_AND_ORGANIZATION_ROLE ( 'design_supplier' ) ;
#104 = ORIENTED_EDGE ( 'NONE', *, *, #278, .T. ) ;
#105 = ADVANCED_FACE ( 'NONE', ( #19 ), #99, .F. ) ;
#106 = EDGE_LOOP ( 'NONE', ( #131, #167, #280, #129 ) ) ;
#107 = ADVANCED_FACE ( 'NONE', ( #311 ), #38, .F. ) ;
#108 = ORIENTED_EDGE ( 'NONE', *, *, #296, .T. ) ;
#109 = VECTOR ( 'NONE', #291, 1000.000000000000000 ) ;
#110 = CARTESIAN_POINT ( 'NONE',  ( 0.0000000000000000000, 0.0000000000000000000, -7.500000000000000000 ) ) ;
#111 = CARTESIAN_POINT ( 'NONE',  ( 7.499999999999998200, -7.500000000000000000, 7.500000000000000000 ) ) ;
#112 = AXIS2_PLACEMENT_3D ( 'NONE', #208, #161, #193 ) ;
#113 = CARTESIAN_POINT ( 'NONE',  ( -6.133173666733495600E-016, -6.133173666733495600E-016, 7.500000000000000000 ) ) ;
#114 = LINE ( 'NONE', #165, #183 ) ;
#115 = PLANE ( 'NONE',  #176 ) ;
#116 = ORIENTED_EDGE ( 'NONE', *, *, #186, .F. ) ;
#117 = MECHANICAL_CONTEXT ( 'NONE', #283, 'mechanical' ) ;
#118 = EDGE_LOOP ( 'NONE', ( #120, #258, #302, #201 ) ) ;
#119 = VECTOR ( 'NONE', #313, 1000.000000000000000 ) ;
#120 = ORIENTED_EDGE ( 'NONE', *, *, #263, .T. ) ;
#121 = LINE ( 'NONE', #87, #305 ) ;
#122 = CARTESIAN_POINT ( 'NONE',  ( -7.500000000000000000, -7.499999999999999100, 7.500000000000000000 ) ) ;
#123 = ORIENTED_EDGE ( 'NONE', *, *, #213, .T. ) ;
#124 = ORIENTED_EDGE ( 'NONE', *, *, #213, .F. ) ;
#125 = AXIS2_PLACEMENT_3D ( 'NONE', #180, #22, #33 ) ;
#126 = DIRECTION ( 'NONE',  ( 0.7071067811865474600, -0.7071067811865474600, 0.0000000000000000000 ) ) ;
#127 = DIRECTION ( 'NONE',  ( -0.0000000000000000000, -0.0000000000000000000, -1.000000000000000000 ) ) ;
#128 = CARTESIAN_POINT ( 'NONE',  ( -7.500000000000000000, 7.499999999999998200, -7.500000000000000000 ) ) ;
#129 = ORIENTED_EDGE ( 'NONE', *, *, #1, .T. ) ;
#130 = ADVANCED_BREP_SHAPE_REPRESENTATION ( 'Web Model 47047_47047', ( #13, #16, #125 ), #39 ) ;
#131 = ORIENTED_EDGE ( 'NONE', *, *, #312, .F. ) ;
#132 = VECTOR ( 'NONE', #127, 1000.000000000000000 ) ;
#133 = PERSON_AND_ORGANIZATION ( #102, #204 ) ;
#134 = DIRECTION ( 'NONE',  ( 1.000000000000000000, 0.0000000000000000000, 0.0000000000000000000 ) ) ;
#135 = DIRECTION ( 'NONE',  ( 0.0000000000000000000, -0.0000000000000000000, 1.000000000000000000 ) ) ;
#136 = PERSON_AND_ORGANIZATION_ROLE ( 'creator' ) ;
#137 = CARTESIAN_POINT ( 'NONE',  ( -0.0000000000000000000, 7.499999999999999100, -7.500000000000000000 ) ) ;
#138 = APPROVAL_DATE_TIME ( #191, #170 ) ;
#139 = FACE_OUTER_BOUND ( 'NONE', #194, .T. ) ;
#140 = DIRECTION ( 'NONE',  ( 1.000000000000000000, 0.0000000000000000000, 0.0000000000000000000 ) ) ;
#141 = DIRECTION ( 'NONE',  ( -0.0000000000000000000, 0.0000000000000000000, 1.000000000000000000 ) ) ;
#142 = DIRECTION ( 'NONE',  ( 1.000000000000000000, 0.0000000000000000000, 0.0000000000000000000 ) ) ;
#143 = CC_DESIGN_PERSON_AND_ORGANIZATION_ASSIGNMENT ( #58, #60, ( #219 ) ) ;
#144 = AXIS2_PLACEMENT_3D ( 'NONE', #26, #245, #27 ) ;
#145 = CALENDAR_DATE ( 2017, 6, 6 ) ;
#146 = EDGE_CURVE ( 'NONE', #91, #168, #257, .T. ) ;
#147 = ADVANCED_FACE ( 'NONE', ( #198 ), #261, .T. ) ;
#148 = ORIENTED_EDGE ( 'NONE', *, *, #146, .T. ) ;
#149 = EDGE_LOOP ( 'NONE', ( #116, #104, #177 ) ) ;
#150 = ORIENTED_EDGE ( 'NONE', *, *, #290, .F. ) ;
#151 = PERSON_AND_ORGANIZATION ( #102, #204 ) ;
#152 = PRODUCT_DEFINITION ( 'UNKNOWN', '', #237, #298 ) ;
#153 =( LENGTH_UNIT ( ) NAMED_UNIT ( * ) SI_UNIT ( .MILLI., .METRE. ) );
#154 = COORDINATED_UNIVERSAL_TIME_OFFSET ( 5, 0, .BEHIND. ) ;
#155 =( NAMED_UNIT ( * ) PLANE_ANGLE_UNIT ( ) SI_UNIT ( $, .RADIAN. ) );
#156 = SECURITY_CLASSIFICATION_LEVEL ( 'unclassified' ) ;
#157 = EDGE_LOOP ( 'NONE', ( #148, #4, #150, #303 ) ) ;
#158 = DATE_AND_TIME ( #3, #225 ) ;
#159 = VECTOR ( 'NONE', #126, 1000.000000000000100 ) ;
#160 = CARTESIAN_POINT ( 'NONE',  ( 7.499999999999998200, -7.500000000000000000, -7.500000000000000000 ) ) ;
#161 = DIRECTION ( 'NONE',  ( 0.0000000000000000000, 1.000000000000000000, 0.0000000000000000000 ) ) ;
#162 = EDGE_LOOP ( 'NONE', ( #61, #279, #29, #321 ) ) ;
#163 = LINE ( 'NONE', #248, #119 ) ;
#164 = PLANE ( 'NONE',  #23 ) ;
#165 = CARTESIAN_POINT ( 'NONE',  ( 7.499999999999998200, 0.0000000000000000000, 7.500000000000000000 ) ) ;
#166 = CARTESIAN_POINT ( 'NONE',  ( 7.499999999999998200, 7.499999999999999100, 7.500000000000000000 ) ) ;
#167 = ORIENTED_EDGE ( 'NONE', *, *, #63, .F. ) ;
#168 = VERTEX_POINT ( 'NONE', #160 ) ;
#169 = PERSON_AND_ORGANIZATION ( #102, #204 ) ;
#170 = APPROVAL ( #242, 'UNSPECIFIED' ) ;
#171 = CARTESIAN_POINT ( 'NONE',  ( 7.499999999999998200, 7.499999999999999100, -7.500000000000000000 ) ) ;
#172 = APPROVAL_PERSON_ORGANIZATION ( #220, #252, #301 ) ;
#173 = DIRECTION ( 'NONE',  ( -0.0000000000000000000, 0.0000000000000000000, 1.000000000000000000 ) ) ;
#174 = CLOSED_SHELL ( 'NONE', ( #105, #107, #147, #294, #31 ) ) ;
#175 = VECTOR ( 'NONE', #304, 1000.000000000000000 ) ;
#176 = AXIS2_PLACEMENT_3D ( 'NONE', #68, #173, #94 ) ;
#177 = ORIENTED_EDGE ( 'NONE', *, *, #11, .F. ) ;
#178 = CARTESIAN_POINT ( 'NONE',  ( 7.499999999999998200, 7.499999999999999100, 7.500000000000000000 ) ) ;
#179 = VECTOR ( 'NONE', #231, 1000.000000000000000 ) ;
#180 = CARTESIAN_POINT ( 'NONE',  ( 0.0000000000000000000, 0.0000000000000000000, 0.0000000000000000000 ) ) ;
#181 = CARTESIAN_POINT ( 'NONE',  ( 0.0000000000000000000, 7.499999999999999100, 7.500000000000000000 ) ) ;
#182 = DIRECTION ( 'NONE',  ( -0.0000000000000000000, -0.0000000000000000000, -1.000000000000000000 ) ) ;
#183 = VECTOR ( 'NONE', #46, 1000.000000000000000 ) ;
#184 = VECTOR ( 'NONE', #182, 1000.000000000000000 ) ;
#185 = CC_DESIGN_APPROVAL ( #170, ( #152 ) ) ;
#186 = EDGE_CURVE ( 'NONE', #36, #40, #227, .T. ) ;
#187 = ORIENTED_EDGE ( 'NONE', *, *, #312, .T. ) ;
#188 = VERTEX_POINT ( 'NONE', #268 ) ;
#189 = DIRECTION ( 'NONE',  ( -0.0000000000000000000, -0.0000000000000000000, -1.000000000000000000 ) ) ;
#190 = APPROVAL_PERSON_ORGANIZATION ( #262, #170, #20 ) ;
#191 = DATE_AND_TIME ( #48, #54 ) ;
#192 = DATE_AND_TIME ( #205, #234 ) ;
#193 = DIRECTION ( 'NONE',  ( 0.0000000000000000000, -0.0000000000000000000, 1.000000000000000000 ) ) ;
#194 = EDGE_LOOP ( 'NONE', ( #238, #123, #12 ) ) ;
#195 = CARTESIAN_POINT ( 'NONE',  ( 7.499999999999998200, -7.500000000000000000, 7.500000000000000000 ) ) ;
#196 = LINE ( 'NONE', #178, #184 ) ;
#197 = LINE ( 'NONE', #15, #267 ) ;
#198 = FACE_OUTER_BOUND ( 'NONE', #6, .T. ) ;
#199 = CC_DESIGN_PERSON_AND_ORGANIZATION_ASSIGNMENT ( #133, #136, ( #152 ) ) ;
#200 = EDGE_CURVE ( 'NONE', #18, #91, #309, .T. ) ;
#201 = ORIENTED_EDGE ( 'NONE', *, *, #67, .T. ) ;
#202 = COORDINATED_UNIVERSAL_TIME_OFFSET ( 5, 0, .BEHIND. ) ;
#203 = APPLICATION_CONTEXT ( 'configuration controlled 3d designs of mechanical parts and assemblies' ) ;
#204 = ORGANIZATION ( 'UNSPECIFIED', 'UNSPECIFIED', '' ) ;
#205 = CALENDAR_DATE ( 2017, 6, 6 ) ;
#206 = AXIS2_PLACEMENT_3D ( 'NONE', #113, #307, #216 ) ;
#207 = DIRECTION ( 'NONE',  ( -0.0000000000000000000, -0.0000000000000000000, -1.000000000000000000 ) ) ;
#208 = CARTESIAN_POINT ( 'NONE',  ( 0.0000000000000000000, -7.499999999999999100, 7.500000000000000000 ) ) ;
#209 = ORIENTED_EDGE ( 'NONE', *, *, #90, .T. ) ;
#210 = ORIENTED_EDGE ( 'NONE', *, *, #263, .F. ) ;
#211 = APPROVAL_ROLE ( '' ) ;
#212 = CARTESIAN_POINT ( 'NONE',  ( -7.500000000000000000, 7.499999999999998200, 7.500000000000000000 ) ) ;
#213 = EDGE_CURVE ( 'NONE', #79, #310, #114, .T. ) ;
#214 = ORIENTED_EDGE ( 'NONE', *, *, #78, .F. ) ;
#215 = LINE ( 'NONE', #92, #73 ) ;
#216 = DIRECTION ( 'NONE',  ( -0.7071067811865474600, 0.7071067811865474600, 0.0000000000000000000 ) ) ;
#217 = CARTESIAN_POINT ( 'NONE',  ( 7.499999999999998200, -7.500000000000000000, 7.500000000000000000 ) ) ;
#218 = CC_DESIGN_DATE_AND_TIME_ASSIGNMENT ( #316, #44, ( #152 ) ) ;
#219 = PRODUCT ( 'Web Model 47047_47047', 'Web Model 47047_47047', '', ( #117 ) ) ;
#220 = PERSON_AND_ORGANIZATION ( #102, #204 ) ;
#221 = APPLICATION_PROTOCOL_DEFINITION ( 'international standard', 'config_control_design', 1994, #283 ) ;
#222 = ADVANCED_FACE ( 'NONE', ( #45 ), #43, .T. ) ;
#223 = DIRECTION ( 'NONE',  ( 0.0000000000000000000, 1.000000000000000000, -0.0000000000000000000 ) ) ;
#224 = ORIENTED_EDGE ( 'NONE', *, *, #232, .T. ) ;
#225 = LOCAL_TIME ( 12, 59, 9.000000000000000000, #299 ) ;
#226 = FACE_OUTER_BOUND ( 'NONE', #106, .T. ) ;
#227 = LINE ( 'NONE', #5, #109 ) ;
#228 = DIRECTION ( 'NONE',  ( -1.000000000000000000, 0.0000000000000000000, 0.0000000000000000000 ) ) ;
#229 = CARTESIAN_POINT ( 'NONE',  ( 7.499999999999998200, 0.0000000000000000000, -7.500000000000000000 ) ) ;
#230 = DIRECTION ( 'NONE',  ( -0.0000000000000000000, -0.0000000000000000000, -1.000000000000000000 ) ) ;
#231 = DIRECTION ( 'NONE',  ( 0.0000000000000000000, 1.000000000000000000, -0.0000000000000000000 ) ) ;
#232 = EDGE_CURVE ( 'NONE', #188, #93, #215, .T. ) ;
#233 = APPROVAL_STATUS ( 'not_yet_approved' ) ;
#234 = LOCAL_TIME ( 12, 59, 9.000000000000000000, #2 ) ;
#235 = EDGE_LOOP ( 'NONE', ( #288, #292, #214 ) ) ;
#236 = PERSON_AND_ORGANIZATION_ROLE ( 'creator' ) ;
#237 = PRODUCT_DEFINITION_FORMATION_WITH_SPECIFIED_SOURCE ( 'ANY', '', #219, .NOT_KNOWN. ) ;
#238 = ORIENTED_EDGE ( 'NONE', *, *, #290, .T. ) ;
#239 = DIRECTION ( 'NONE',  ( 0.0000000000000000000, 0.0000000000000000000, 1.000000000000000000 ) ) ;
#240 = COORDINATED_UNIVERSAL_TIME_OFFSET ( 5, 0, .BEHIND. ) ;
#241 = AXIS2_PLACEMENT_3D ( 'NONE', #98, #320, #239 ) ;
#242 = APPROVAL_STATUS ( 'not_yet_approved' ) ;
#243 = VECTOR ( 'NONE', #274, 1000.000000000000000 ) ;
#244 = PERSON_AND_ORGANIZATION ( #102, #204 ) ;
#245 = DIRECTION ( 'NONE',  ( 0.7071067811865475700, 0.7071067811865475700, -0.0000000000000000000 ) ) ;
#246 = ORIENTED_EDGE ( 'NONE', *, *, #200, .F. ) ;
#247 = FACE_OUTER_BOUND ( 'NONE', #251, .T. ) ;
#248 = CARTESIAN_POINT ( 'NONE',  ( 0.0000000000000000000, -7.499999999999999100, 7.500000000000000000 ) ) ;
#249 = EDGE_CURVE ( 'NONE', #91, #51, #86, .T. ) ;
#250 = ORIENTED_EDGE ( 'NONE', *, *, #90, .F. ) ;
#251 = EDGE_LOOP ( 'NONE', ( #224, #187, #210 ) ) ;
#252 = APPROVAL ( #233, 'UNSPECIFIED' ) ;
#253 = DIRECTION ( 'NONE',  ( -0.0000000000000000000, 0.0000000000000000000, 1.000000000000000000 ) ) ;
#254 = APPLICATION_PROTOCOL_DEFINITION ( 'international standard', 'config_control_design', 1994, #203 ) ;
#255 = LINE ( 'NONE', #95, #243 ) ;
#256 = ADVANCED_FACE ( 'NONE', ( #247 ), #164, .F. ) ;
#257 = LINE ( 'NONE', #50, #159 ) ;
#258 = ORIENTED_EDGE ( 'NONE', *, *, #1, .F. ) ;
#259 = DIRECTION ( 'NONE',  ( 0.7071067811865474600, -0.7071067811865474600, 0.0000000000000000000 ) ) ;
#260 = PERSON_AND_ORGANIZATION ( #102, #204 ) ;
#261 = PLANE ( 'NONE',  #271 ) ;
#262 = PERSON_AND_ORGANIZATION ( #102, #204 ) ;
#263 = EDGE_CURVE ( 'NONE', #188, #297, #255, .T. ) ;
#264 = FACE_OUTER_BOUND ( 'NONE', #149, .T. ) ;
#265 = CC_DESIGN_APPROVAL ( #252, ( #237 ) ) ;
#266 = PLANE ( 'NONE',  #144 ) ;
#267 = VECTOR ( 'NONE', #83, 1000.000000000000100 ) ;
#268 = CARTESIAN_POINT ( 'NONE',  ( -7.500000000000000000, -7.499999999999999100, -7.500000000000000000 ) ) ;
#269 = VECTOR ( 'NONE', #142, 1000.000000000000000 ) ;
#270 = VECTOR ( 'NONE', #281, 1000.000000000000000 ) ;
#271 = AXIS2_PLACEMENT_3D ( 'NONE', #181, #289, #135 ) ;
#272 = CLOSED_SHELL ( 'NONE', ( #222, #53, #77, #81, #256 ) ) ;
#273 = DIRECTION ( 'NONE',  ( 0.7071067811865474600, -0.7071067811865474600, 0.0000000000000000000 ) ) ;
#274 = DIRECTION ( 'NONE',  ( 1.000000000000000000, 0.0000000000000000000, 0.0000000000000000000 ) ) ;
#275 = CARTESIAN_POINT ( 'NONE',  ( 7.499999999999998200, -7.500000000000000000, -7.500000000000000000 ) ) ;
#276 =( NAMED_UNIT ( * ) SI_UNIT ( $, .STERADIAN. ) SOLID_ANGLE_UNIT ( ) );
#277 = ORIENTED_EDGE ( 'NONE', *, *, #78, .T. ) ;
#278 = EDGE_CURVE ( 'NONE', #36, #64, #163, .T. ) ;
#279 = ORIENTED_EDGE ( 'NONE', *, *, #67, .F. ) ;
#280 = ORIENTED_EDGE ( 'NONE', *, *, #11, .T. ) ;
#281 = DIRECTION ( 'NONE',  ( -0.0000000000000000000, -0.0000000000000000000, -1.000000000000000000 ) ) ;
#282 = PLANE ( 'NONE',  #80 ) ;
#283 = APPLICATION_CONTEXT ( 'configuration controlled 3d designs of mechanical parts and assemblies' ) ;
#284 = ORIENTED_EDGE ( 'NONE', *, *, #249, .F. ) ;
#285 = CC_DESIGN_PERSON_AND_ORGANIZATION_ASSIGNMENT ( #244, #236, ( #237 ) ) ;
#286 = FACE_OUTER_BOUND ( 'NONE', #118, .T. ) ;
#287 = DIRECTION ( 'NONE',  ( -0.0000000000000000000, 0.0000000000000000000, 1.000000000000000000 ) ) ;
#288 = ORIENTED_EDGE ( 'NONE', *, *, #146, .F. ) ;
#289 = DIRECTION ( 'NONE',  ( 0.0000000000000000000, 1.000000000000000000, 0.0000000000000000000 ) ) ;
#290 = EDGE_CURVE ( 'NONE', #18, #79, #295, .T. ) ;
#291 = DIRECTION ( 'NONE',  ( 0.0000000000000000000, 1.000000000000000000, -0.0000000000000000000 ) ) ;
#292 = ORIENTED_EDGE ( 'NONE', *, *, #249, .T. ) ;
#293 = VECTOR ( 'NONE', #230, 1000.000000000000000 ) ;
#294 = ADVANCED_FACE ( 'NONE', ( #139 ), #42, .T. ) ;
#295 = LINE ( 'NONE', #75, #8 ) ;
#296 = EDGE_CURVE ( 'NONE', #79, #168, #121, .T. ) ;
#297 = VERTEX_POINT ( 'NONE', #275 ) ;
#298 = DESIGN_CONTEXT ( 'detailed design', #203, 'design' ) ;
#299 = COORDINATED_UNIVERSAL_TIME_OFFSET ( 5, 0, .BEHIND. ) ;
#300 = CC_DESIGN_PERSON_AND_ORGANIZATION_ASSIGNMENT ( #151, #103, ( #237 ) ) ;
#301 = APPROVAL_ROLE ( '' ) ;
#302 = ORIENTED_EDGE ( 'NONE', *, *, #278, .F. ) ;
#303 = ORIENTED_EDGE ( 'NONE', *, *, #200, .T. ) ;
#304 = DIRECTION ( 'NONE',  ( 1.000000000000000000, 0.0000000000000000000, 0.0000000000000000000 ) ) ;
#305 = VECTOR ( 'NONE', #189, 1000.000000000000000 ) ;
#306 = ORIENTED_EDGE ( 'NONE', *, *, #30, .T. ) ;
#307 = DIRECTION ( 'NONE',  ( 0.7071067811865475700, 0.7071067811865475700, -0.0000000000000000000 ) ) ;
#308 = AXIS2_PLACEMENT_3D ( 'NONE', #37, #228, #76 ) ;
#309 = LINE ( 'NONE', #212, #270 ) ;
#310 = VERTEX_POINT ( 'NONE', #166 ) ;
#311 = FACE_OUTER_BOUND ( 'NONE', #25, .T. ) ;
#312 = EDGE_CURVE ( 'NONE', #93, #297, #88, .T. ) ;
#313 = DIRECTION ( 'NONE',  ( 1.000000000000000000, 0.0000000000000000000, 0.0000000000000000000 ) ) ;
#314 = LINE ( 'NONE', #217, #132 ) ;
#315 = DATE_AND_TIME ( #145, #28 ) ;
#316 = DATE_AND_TIME ( #52, #66 ) ;
#317 = CARTESIAN_POINT ( 'NONE',  ( 0.0000000000000000000, 0.0000000000000000000, -7.500000000000000000 ) ) ;
#318 = SECURITY_CLASSIFICATION ( '', '', #156 ) ;
#319 = CARTESIAN_POINT ( 'NONE',  ( -7.500000000000000000, 7.499999999999998200, -7.500000000000000000 ) ) ;
#320 = DIRECTION ( 'NONE',  ( -1.000000000000000000, 0.0000000000000000000, 0.0000000000000000000 ) ) ;
#321 = ORIENTED_EDGE ( 'NONE', *, *, #63, .T. ) ;
ENDSEC;
END-ISO-10303-21;
