ISO-10303-21;
HEADER;
FILE_DESCRIPTION (( 'STEP AP214' ),
    '1' );
FILE_NAME ('4576-E0W.STEP',
    '2009-12-21T17:11:03',
    ( ' ' ),
    ( ' ' ),
    'SwSTEP 2.0',
    'SolidWorks 2009',
    '' );
FILE_SCHEMA (( 'AUTOMOTIVE_DESIGN' ));
ENDSEC;

DATA;
#1 = ADVANCED_FACE ( 'NONE', ( #55 ), #71, .T. ) ;
#2 = ORIENTED_EDGE ( 'NONE', *, *, #44, .F. ) ;
#3 = EDGE_CURVE ( 'NONE', #31, #25, #96, .T. ) ;
#4 = ORIENTED_EDGE ( 'NONE', *, *, #29, .F. ) ;
#5 = EDGE_LOOP ( 'NONE', ( #38, #39, #9, #10, #47 ) ) ;
#6 = VERTEX_POINT ( 'NONE', #103 ) ;
#7 = UNCERTAINTY_MEASURE_WITH_UNIT (LENGTH_MEASURE( 1.000000000000000100E-005 ), #214, 'distance_accuracy_value', 'NONE');
#8 = ORIENTED_EDGE ( 'NONE', *, *, #12, .T. ) ;
#9 = ORIENTED_EDGE ( 'NONE', *, *, #40, .T. ) ;
#10 = ORIENTED_EDGE ( 'NONE', *, *, #36, .F. ) ;
#11 = EDGE_CURVE ( 'NONE', #6, #22, #91, .T. ) ;
#12 = EDGE_CURVE ( 'NONE', #6, #25, #107, .T. ) ;
#13 = EDGE_LOOP ( 'NONE', ( #49, #32, #26, #8 ) ) ;
#14 = EDGE_LOOP ( 'NONE', ( #43, #23, #41, #21 ) ) ;
#15 = ADVANCED_FACE ( 'NONE', ( #135 ), #128, .T. ) ;
#16 = ORIENTED_EDGE ( 'NONE', *, *, #11, .F. ) ;
#17 = ADVANCED_FACE ( 'NONE', ( #122 ), #141, .T. ) ;
#18 = CLOSED_SHELL ( 'NONE', ( #48, #1, #15, #17, #33 ) ) ;
#19 = ORIENTED_EDGE ( 'NONE', *, *, #37, .T. ) ;
#20 = VERTEX_POINT ( 'NONE', #142 ) ;
#21 = ORIENTED_EDGE ( 'NONE', *, *, #12, .F. ) ;
#22 = VERTEX_POINT ( 'NONE', #130 ) ;
#23 = ORIENTED_EDGE ( 'NONE', *, *, #24, .T. ) ;
#24 = EDGE_CURVE ( 'NONE', #22, #31, #152, .T. ) ;
#25 = VERTEX_POINT ( 'NONE', #179 ) ;
#26 = ORIENTED_EDGE ( 'NONE', *, *, #46, .T. ) ;
#27 = ORIENTED_EDGE ( 'NONE', *, *, #29, .T. ) ;
#28 = VERTEX_POINT ( 'NONE', #181 ) ;
#29 = EDGE_CURVE ( 'NONE', #30, #28, #164, .T. ) ;
#30 = VERTEX_POINT ( 'NONE', #157 ) ;
#31 = VERTEX_POINT ( 'NONE', #177 ) ;
#32 = ORIENTED_EDGE ( 'NONE', *, *, #36, .T. ) ;
#33 = ADVANCED_FACE ( 'NONE', ( #174 ), #83, .F. ) ;
#34 = EDGE_LOOP ( 'NONE', ( #27, #19, #16, #45, #50 ) ) ;
#35 = MANIFOLD_SOLID_BREP ( 'NONE', #18 ) ;
#36 = EDGE_CURVE ( 'NONE', #31, #20, #194, .T. ) ;
#37 = EDGE_CURVE ( 'NONE', #28, #22, #188, .T. ) ;
#38 = ORIENTED_EDGE ( 'NONE', *, *, #37, .F. ) ;
#39 = ORIENTED_EDGE ( 'NONE', *, *, #44, .T. ) ;
#40 = EDGE_CURVE ( 'NONE', #30, #20, #204, .T. ) ;
#41 = ORIENTED_EDGE ( 'NONE', *, *, #3, .T. ) ;
#42 = EDGE_LOOP ( 'NONE', ( #4, #2 ) ) ;
#43 = ORIENTED_EDGE ( 'NONE', *, *, #11, .T. ) ;
#44 = EDGE_CURVE ( 'NONE', #28, #30, #209, .T. ) ;
#45 = ORIENTED_EDGE ( 'NONE', *, *, #46, .F. ) ;
#46 = EDGE_CURVE ( 'NONE', #20, #6, #226, .T. ) ;
#47 = ORIENTED_EDGE ( 'NONE', *, *, #24, .F. ) ;
#48 = ADVANCED_FACE ( 'NONE', ( #222 ), #242, .T. ) ;
#49 = ORIENTED_EDGE ( 'NONE', *, *, #3, .F. ) ;
#50 = ORIENTED_EDGE ( 'NONE', *, *, #40, .F. ) ;
#51 = SURFACE_STYLE_USAGE ( .BOTH. , #59 ) ;
#52 = UNCERTAINTY_MEASURE_WITH_UNIT (LENGTH_MEASURE( 1.000000000000000100E-005 ), #53, 'distance_accuracy_value', 'NONE');
#53 =( LENGTH_UNIT ( ) NAMED_UNIT ( * ) SI_UNIT ( .MILLI., .METRE. ) );
#54 = COLOUR_RGB ( '',0.9568627450980391500, 0.9490196078431372100, 0.9607843137254902200 ) ;
#55 = FACE_OUTER_BOUND ( 'NONE', #14, .T. ) ;
#56 = STYLED_ITEM ( 'NONE', ( #60 ), #1 ) ;
#57 = FILL_AREA_STYLE ('',( #61 ) ) ;
#58 = SURFACE_STYLE_FILL_AREA ( #57 ) ;
#59 = SURFACE_SIDE_STYLE ('',( #58 ) ) ;
#60 = PRESENTATION_STYLE_ASSIGNMENT (( #51 ) ) ;
#61 = FILL_AREA_STYLE_COLOUR ( '', #54 ) ;
#62 = PRESENTATION_LAYER_ASSIGNMENT (  '', '', ( #56 ) ) ;
#63 =( NAMED_UNIT ( * ) PLANE_ANGLE_UNIT ( ) SI_UNIT ( $, .RADIAN. ) );
#64 = MECHANICAL_DESIGN_GEOMETRIC_PRESENTATION_REPRESENTATION (  '', ( #56 ), #76 ) ;
#65 =( NAMED_UNIT ( * ) SI_UNIT ( $, .STERADIAN. ) SOLID_ANGLE_UNIT ( ) );
#66 = AXIS2_PLACEMENT_3D ( 'NONE', #73, #86, #82 ) ;
#67 = DIRECTION ( 'NONE',  ( 1.000000000000000000, 0.0000000000000000000, 0.0000000000000000000 ) ) ;
#68 = PRESENTATION_LAYER_ASSIGNMENT (  '', '', ( #69 ) ) ;
#69 = STYLED_ITEM ( 'NONE', ( #80 ), #84 ) ;
#70 = DIRECTION ( 'NONE',  ( 1.000000000000000000, 0.0000000000000000000, 0.0000000000000000000 ) ) ;
#71 = SPHERICAL_SURFACE ( 'NONE', #66, 25.75000000000000000 ) ;
#72 = DIRECTION ( 'NONE',  ( -0.0000000000000000000, -0.0000000000000000000, 1.000000000000000000 ) ) ;
#73 = CARTESIAN_POINT ( 'NONE',  ( 0.0000000000000000000, 0.0000000000000000000, -24.03999999999999900 ) ) ;
#74 = FILL_AREA_STYLE_COLOUR ( '', #79 ) ;
#75 = FILL_AREA_STYLE ('',( #74 ) ) ;
#76 =( GEOMETRIC_REPRESENTATION_CONTEXT ( 3 ) GLOBAL_UNCERTAINTY_ASSIGNED_CONTEXT ( ( #52 ) ) GLOBAL_UNIT_ASSIGNED_CONTEXT ( ( #53, #63, #65 ) ) REPRESENTATION_CONTEXT ( 'NONE', 'WORKASPACE' ) );
#77 = DIRECTION ( 'NONE',  ( 1.000000000000000000, 0.0000000000000000000, 0.0000000000000000000 ) ) ;
#78 = CARTESIAN_POINT ( 'NONE',  ( 0.0000000000000000000, 6.282438079625921100E-016, -1.710000000000000200 ) ) ;
#79 = COLOUR_RGB ( '',0.7960784313725489700, 0.8235294117647058400, 0.9372549019607843100 ) ;
#80 = PRESENTATION_STYLE_ASSIGNMENT (( #81 ) ) ;
#81 = SURFACE_STYLE_USAGE ( .BOTH. , #89 ) ;
#82 = DIRECTION ( 'NONE',  ( 0.0000000000000000000, 1.000000000000000000, 0.0000000000000000000 ) ) ;
#83 = PLANE ( 'NONE',  #87 ) ;
#84 = ADVANCED_BREP_SHAPE_REPRESENTATION ( '4576-E0W', ( #35, #249 ), #85 ) ;
#85 =( GEOMETRIC_REPRESENTATION_CONTEXT ( 3 ) GLOBAL_UNCERTAINTY_ASSIGNED_CONTEXT ( ( #7 ) ) GLOBAL_UNIT_ASSIGNED_CONTEXT ( ( #214, #236, #227 ) ) REPRESENTATION_CONTEXT ( 'NONE', 'WORKASPACE' ) );
#86 = DIRECTION ( 'NONE',  ( -1.000000000000000000, 0.0000000000000000000, 0.0000000000000000000 ) ) ;
#87 = AXIS2_PLACEMENT_3D ( 'NONE', #78, #88, #77 ) ;
#88 = DIRECTION ( 'NONE',  ( 0.0000000000000000000, -0.0000000000000000000, 1.000000000000000000 ) ) ;
#89 = SURFACE_SIDE_STYLE ('',( #90 ) ) ;
#90 = SURFACE_STYLE_FILL_AREA ( #75 ) ;
#91 = CIRCLE ( 'NONE', #102, 9.000000000000001800 ) ;
#92 = DIRECTION ( 'NONE',  ( 1.000000000000000000, 0.0000000000000000000, 0.0000000000000000000 ) ) ;
#93 =( LENGTH_UNIT ( ) NAMED_UNIT ( * ) SI_UNIT ( .MILLI., .METRE. ) );
#94 = DIRECTION ( 'NONE',  ( -0.0000000000000000000, -0.0000000000000000000, 1.000000000000000000 ) ) ;
#95 = DIRECTION ( 'NONE',  ( -1.000000000000000000, 1.224606353822377300E-016, 0.0000000000000000000 ) ) ;
#96 = CIRCLE ( 'NONE', #98, 25.75000000000000000 ) ;
#97 = DIRECTION ( 'NONE',  ( -1.224606353822377300E-016, -1.000000000000000000, 0.0000000000000000000 ) ) ;
#98 = AXIS2_PLACEMENT_3D ( 'NONE', #104, #95, #97 ) ;
#99 = CARTESIAN_POINT ( 'NONE',  ( 0.0000000000000000000, 0.0000000000000000000, -24.03999999999999900 ) ) ;
#100 = CARTESIAN_POINT ( 'NONE',  ( 0.0000000000000000000, 0.0000000000000000000, 0.08597148303048171600 ) ) ;
#101 = AXIS2_PLACEMENT_3D ( 'NONE', #99, #105, #108 ) ;
#102 = AXIS2_PLACEMENT_3D ( 'NONE', #100, #94, #92 ) ;
#103 = CARTESIAN_POINT ( 'NONE',  ( 0.0000000000000000000, 9.000000000000001800, 0.08597148303048128500 ) ) ;
#104 = CARTESIAN_POINT ( 'NONE',  ( 0.0000000000000000000, 0.0000000000000000000, -24.03999999999999900 ) ) ;
#105 = DIRECTION ( 'NONE',  ( 1.000000000000000000, 0.0000000000000000000, 0.0000000000000000000 ) ) ;
#106 = MECHANICAL_DESIGN_GEOMETRIC_PRESENTATION_REPRESENTATION (  '', ( #69 ), #246 ) ;
#107 = CIRCLE ( 'NONE', #101, 25.75000000000000400 ) ;
#108 = DIRECTION ( 'NONE',  ( 0.0000000000000000000, 0.0000000000000000000, -1.000000000000000000 ) ) ;
#109 = FILL_AREA_STYLE ('',( #153 ) ) ;
#110 = PRESENTATION_LAYER_ASSIGNMENT (  '', '', ( #111 ) ) ;
#111 = STYLED_ITEM ( 'NONE', ( #136 ), #17 ) ;
#112 =( NAMED_UNIT ( * ) SI_UNIT ( $, .STERADIAN. ) SOLID_ANGLE_UNIT ( ) );
#113 =( GEOMETRIC_REPRESENTATION_CONTEXT ( 3 ) GLOBAL_UNCERTAINTY_ASSIGNED_CONTEXT ( ( #124 ) ) GLOBAL_UNIT_ASSIGNED_CONTEXT ( ( #115, #129, #112 ) ) REPRESENTATION_CONTEXT ( 'NONE', 'WORKASPACE' ) );
#114 = SURFACE_STYLE_FILL_AREA ( #109 ) ;
#115 =( LENGTH_UNIT ( ) NAMED_UNIT ( * ) SI_UNIT ( .MILLI., .METRE. ) );
#116 = SURFACE_STYLE_FILL_AREA ( #117 ) ;
#117 = FILL_AREA_STYLE ('',( #154 ) ) ;
#118 = PRESENTATION_LAYER_ASSIGNMENT (  '', '', ( #123 ) ) ;
#119 = PRESENTATION_STYLE_ASSIGNMENT (( #148 ) ) ;
#120 = SURFACE_SIDE_STYLE ('',( #114 ) ) ;
#121 = COLOUR_RGB ( '',0.9568627450980391500, 0.9490196078431372100, 0.9607843137254902200 ) ;
#122 = FACE_OUTER_BOUND ( 'NONE', #5, .T. ) ;
#123 = STYLED_ITEM ( 'NONE', ( #119 ), #15 ) ;
#124 = UNCERTAINTY_MEASURE_WITH_UNIT (LENGTH_MEASURE( 1.000000000000000100E-005 ), #115, 'distance_accuracy_value', 'NONE');
#125 =( NAMED_UNIT ( * ) PLANE_ANGLE_UNIT ( ) SI_UNIT ( $, .RADIAN. ) );
#126 = MECHANICAL_DESIGN_GEOMETRIC_PRESENTATION_REPRESENTATION (  '', ( #123 ), #113 ) ;
#127 =( NAMED_UNIT ( * ) SI_UNIT ( $, .STERADIAN. ) SOLID_ANGLE_UNIT ( ) );
#128 = SPHERICAL_SURFACE ( 'NONE', #134, 25.75000000000000000 ) ;
#129 =( NAMED_UNIT ( * ) PLANE_ANGLE_UNIT ( ) SI_UNIT ( $, .RADIAN. ) );
#130 = CARTESIAN_POINT ( 'NONE',  ( -9.000000000000001800, 1.102145718440139700E-015, 0.08597148303048171600 ) ) ;
#131 = DIRECTION ( 'NONE',  ( 1.000000000000000000, 0.0000000000000000000, 0.0000000000000000000 ) ) ;
#132 = DIRECTION ( 'NONE',  ( -0.0000000000000000000, -0.0000000000000000000, 1.000000000000000000 ) ) ;
#133 = CARTESIAN_POINT ( 'NONE',  ( 0.0000000000000000000, 0.0000000000000000000, -24.03999999999999900 ) ) ;
#134 = AXIS2_PLACEMENT_3D ( 'NONE', #133, #140, #155 ) ;
#135 = FACE_OUTER_BOUND ( 'NONE', #13, .T. ) ;
#136 = PRESENTATION_STYLE_ASSIGNMENT (( #137 ) ) ;
#137 = SURFACE_STYLE_USAGE ( .BOTH. , #138 ) ;
#138 = SURFACE_SIDE_STYLE ('',( #116 ) ) ;
#139 =( GEOMETRIC_REPRESENTATION_CONTEXT ( 3 ) GLOBAL_UNCERTAINTY_ASSIGNED_CONTEXT ( ( #143 ) ) GLOBAL_UNIT_ASSIGNED_CONTEXT ( ( #147, #125, #127 ) ) REPRESENTATION_CONTEXT ( 'NONE', 'WORKASPACE' ) );
#140 = DIRECTION ( 'NONE',  ( -1.000000000000000000, 0.0000000000000000000, 0.0000000000000000000 ) ) ;
#141 = CYLINDRICAL_SURFACE ( 'NONE', #145, 9.000000000000001800 ) ;
#142 = CARTESIAN_POINT ( 'NONE',  ( 9.000000000000001800, 0.0000000000000000000, 0.08597148303048171600 ) ) ;
#143 = UNCERTAINTY_MEASURE_WITH_UNIT (LENGTH_MEASURE( 1.000000000000000100E-005 ), #147, 'distance_accuracy_value', 'NONE');
#144 = CARTESIAN_POINT ( 'NONE',  ( 0.0000000000000000000, 0.0000000000000000000, 4.308132045400366600 ) ) ;
#145 = AXIS2_PLACEMENT_3D ( 'NONE', #144, #132, #131 ) ;
#146 = COLOUR_RGB ( '',0.9568627450980391500, 0.9490196078431372100, 0.9607843137254902200 ) ;
#147 =( LENGTH_UNIT ( ) NAMED_UNIT ( * ) SI_UNIT ( .MILLI., .METRE. ) );
#148 = SURFACE_STYLE_USAGE ( .BOTH. , #120 ) ;
#149 = DIRECTION ( 'NONE',  ( -0.0000000000000000000, -0.0000000000000000000, 1.000000000000000000 ) ) ;
#150 = CARTESIAN_POINT ( 'NONE',  ( 0.0000000000000000000, 0.0000000000000000000, 0.08597148303048171600 ) ) ;
#151 = AXIS2_PLACEMENT_3D ( 'NONE', #150, #149, #70 ) ;
#152 = CIRCLE ( 'NONE', #151, 9.000000000000001800 ) ;
#153 = FILL_AREA_STYLE_COLOUR ( '', #146 ) ;
#154 = FILL_AREA_STYLE_COLOUR ( '', #121 ) ;
#155 = DIRECTION ( 'NONE',  ( 0.0000000000000000000, 1.000000000000000000, 0.0000000000000000000 ) ) ;
#156 = MECHANICAL_DESIGN_GEOMETRIC_PRESENTATION_REPRESENTATION (  '', ( #111 ), #139 ) ;
#157 = CARTESIAN_POINT ( 'NONE',  ( 9.000000000000000000, 0.0000000000000000000, -1.709999999999999700 ) ) ;
#158 = FILL_AREA_STYLE_COLOUR ( '', #165 ) ;
#159 = CARTESIAN_POINT ( 'NONE',  ( 0.0000000000000000000, 0.0000000000000000000, -1.709999999999999700 ) ) ;
#160 =( LENGTH_UNIT ( ) NAMED_UNIT ( * ) SI_UNIT ( .MILLI., .METRE. ) );
#161 = MECHANICAL_DESIGN_GEOMETRIC_PRESENTATION_REPRESENTATION (  '', ( #166 ), #170 ) ;
#162 = PRESENTATION_LAYER_ASSIGNMENT (  '', '', ( #166 ) ) ;
#163 = DIRECTION ( 'NONE',  ( 1.000000000000000000, 0.0000000000000000000, 0.0000000000000000000 ) ) ;
#164 = CIRCLE ( 'NONE', #173, 9.000000000000000000 ) ;
#165 = COLOUR_RGB ( '',0.9568627450980391500, 0.9490196078431372100, 0.9607843137254902200 ) ;
#166 = STYLED_ITEM ( 'NONE', ( #167 ), #33 ) ;
#167 = PRESENTATION_STYLE_ASSIGNMENT (( #168 ) ) ;
#168 = SURFACE_STYLE_USAGE ( .BOTH. , #169 ) ;
#169 = SURFACE_SIDE_STYLE ('',( #171 ) ) ;
#170 =( GEOMETRIC_REPRESENTATION_CONTEXT ( 3 ) GLOBAL_UNCERTAINTY_ASSIGNED_CONTEXT ( ( #175 ) ) GLOBAL_UNIT_ASSIGNED_CONTEXT ( ( #160, #178, #176 ) ) REPRESENTATION_CONTEXT ( 'NONE', 'WORKASPACE' ) );
#171 = SURFACE_STYLE_FILL_AREA ( #172 ) ;
#172 = FILL_AREA_STYLE ('',( #158 ) ) ;
#173 = AXIS2_PLACEMENT_3D ( 'NONE', #159, #180, #163 ) ;
#174 = FACE_OUTER_BOUND ( 'NONE', #42, .T. ) ;
#175 = UNCERTAINTY_MEASURE_WITH_UNIT (LENGTH_MEASURE( 1.000000000000000100E-005 ), #160, 'distance_accuracy_value', 'NONE');
#176 =( NAMED_UNIT ( * ) SI_UNIT ( $, .STERADIAN. ) SOLID_ANGLE_UNIT ( ) );
#177 = CARTESIAN_POINT ( 'NONE',  ( -1.102145718440139700E-015, -9.000000000000001800, 0.08597148303048128500 ) ) ;
#178 =( NAMED_UNIT ( * ) PLANE_ANGLE_UNIT ( ) SI_UNIT ( $, .RADIAN. ) );
#179 = CARTESIAN_POINT ( 'NONE',  ( 0.0000000000000000000, 1.576680680546310700E-015, 1.709999999999999700 ) ) ;
#180 = DIRECTION ( 'NONE',  ( -0.0000000000000000000, -0.0000000000000000000, 1.000000000000000000 ) ) ;
#181 = CARTESIAN_POINT ( 'NONE',  ( -9.000000000000000000, 1.102145718440139500E-015, -1.709999999999999700 ) ) ;
#182 = FILL_AREA_STYLE_COLOUR ( '', #197 ) ;
#183 =( NAMED_UNIT ( * ) SI_UNIT ( $, .STERADIAN. ) SOLID_ANGLE_UNIT ( ) );
#184 =( NAMED_UNIT ( * ) PLANE_ANGLE_UNIT ( ) SI_UNIT ( $, .RADIAN. ) );
#185 = DIRECTION ( 'NONE',  ( -0.0000000000000000000, -0.0000000000000000000, 1.000000000000000000 ) ) ;
#186 = VECTOR ( 'NONE', #185, 1000.000000000000000 ) ;
#187 = CARTESIAN_POINT ( 'NONE',  ( -9.000000000000001800, 1.102145718440139700E-015, 4.308132045400366600 ) ) ;
#188 = LINE ( 'NONE', #187, #186 ) ;
#189 = MECHANICAL_DESIGN_GEOMETRIC_PRESENTATION_REPRESENTATION (  '', ( #198 ), #205 ) ;
#190 = PRESENTATION_LAYER_ASSIGNMENT (  '', '', ( #198 ) ) ;
#191 = UNCERTAINTY_MEASURE_WITH_UNIT (LENGTH_MEASURE( 1.000000000000000100E-005 ), #206, 'distance_accuracy_value', 'NONE');
#192 = FILL_AREA_STYLE ('',( #182 ) ) ;
#193 = AXIS2_PLACEMENT_3D ( 'NONE', #211, #200, #199 ) ;
#194 = CIRCLE ( 'NONE', #193, 9.000000000000001800 ) ;
#195 = PRESENTATION_STYLE_ASSIGNMENT (( #196 ) ) ;
#196 = SURFACE_STYLE_USAGE ( .BOTH. , #212 ) ;
#197 = COLOUR_RGB ( '',0.7960784313725489700, 0.8235294117647058400, 0.9372549019607843100 ) ;
#198 = STYLED_ITEM ( 'NONE', ( #195 ), #35 ) ;
#199 = DIRECTION ( 'NONE',  ( 1.000000000000000000, 0.0000000000000000000, 0.0000000000000000000 ) ) ;
#200 = DIRECTION ( 'NONE',  ( -0.0000000000000000000, -0.0000000000000000000, 1.000000000000000000 ) ) ;
#201 = DIRECTION ( 'NONE',  ( -0.0000000000000000000, -0.0000000000000000000, 1.000000000000000000 ) ) ;
#202 = VECTOR ( 'NONE', #201, 1000.000000000000000 ) ;
#203 = CARTESIAN_POINT ( 'NONE',  ( 9.000000000000001800, 0.0000000000000000000, 4.308132045400366600 ) ) ;
#204 = LINE ( 'NONE', #203, #202 ) ;
#205 =( GEOMETRIC_REPRESENTATION_CONTEXT ( 3 ) GLOBAL_UNCERTAINTY_ASSIGNED_CONTEXT ( ( #191 ) ) GLOBAL_UNIT_ASSIGNED_CONTEXT ( ( #206, #184, #183 ) ) REPRESENTATION_CONTEXT ( 'NONE', 'WORKASPACE' ) );
#206 =( LENGTH_UNIT ( ) NAMED_UNIT ( * ) SI_UNIT ( .MILLI., .METRE. ) );
#207 = CARTESIAN_POINT ( 'NONE',  ( 0.0000000000000000000, 0.0000000000000000000, -1.709999999999999700 ) ) ;
#208 = AXIS2_PLACEMENT_3D ( 'NONE', #207, #72, #67 ) ;
#209 = CIRCLE ( 'NONE', #208, 9.000000000000000000 ) ;
#210 =( NAMED_UNIT ( * ) PLANE_ANGLE_UNIT ( ) SI_UNIT ( $, .RADIAN. ) );
#211 = CARTESIAN_POINT ( 'NONE',  ( 0.0000000000000000000, 0.0000000000000000000, 0.08597148303048171600 ) ) ;
#212 = SURFACE_SIDE_STYLE ('',( #213 ) ) ;
#213 = SURFACE_STYLE_FILL_AREA ( #192 ) ;
#214 =( LENGTH_UNIT ( ) NAMED_UNIT ( * ) SI_UNIT ( .MILLI., .METRE. ) );
#215 = STYLED_ITEM ( 'NONE', ( #237 ), #48 ) ;
#216 = CARTESIAN_POINT ( 'NONE',  ( 0.0000000000000000000, 0.0000000000000000000, 0.08597148303048171600 ) ) ;
#217 =( LENGTH_UNIT ( ) NAMED_UNIT ( * ) SI_UNIT ( .MILLI., .METRE. ) );
#218 = PRESENTATION_LAYER_ASSIGNMENT (  '', '', ( #215 ) ) ;
#219 = FILL_AREA_STYLE_COLOUR ( '', #243 ) ;
#220 = SURFACE_STYLE_USAGE ( .BOTH. , #238 ) ;
#221 = DIRECTION ( 'NONE',  ( 1.000000000000000000, 0.0000000000000000000, 0.0000000000000000000 ) ) ;
#222 = FACE_OUTER_BOUND ( 'NONE', #34, .T. ) ;
#223 = MECHANICAL_DESIGN_GEOMETRIC_PRESENTATION_REPRESENTATION (  '', ( #215 ), #224 ) ;
#224 =( GEOMETRIC_REPRESENTATION_CONTEXT ( 3 ) GLOBAL_UNCERTAINTY_ASSIGNED_CONTEXT ( ( #244 ) ) GLOBAL_UNIT_ASSIGNED_CONTEXT ( ( #217, #225, #230 ) ) REPRESENTATION_CONTEXT ( 'NONE', 'WORKASPACE' ) );
#225 =( NAMED_UNIT ( * ) PLANE_ANGLE_UNIT ( ) SI_UNIT ( $, .RADIAN. ) );
#226 = CIRCLE ( 'NONE', #235, 9.000000000000001800 ) ;
#227 =( NAMED_UNIT ( * ) SI_UNIT ( $, .STERADIAN. ) SOLID_ANGLE_UNIT ( ) );
#228 = SHAPE_DEFINITION_REPRESENTATION ( #234, #84 ) ;
#229 = DIRECTION ( 'NONE',  ( 1.000000000000000000, 0.0000000000000000000, 0.0000000000000000000 ) ) ;
#230 =( NAMED_UNIT ( * ) SI_UNIT ( $, .STERADIAN. ) SOLID_ANGLE_UNIT ( ) );
#231 = DIRECTION ( 'NONE',  ( -0.0000000000000000000, -0.0000000000000000000, 1.000000000000000000 ) ) ;
#232 = AXIS2_PLACEMENT_3D ( 'NONE', #241, #231, #229 ) ;
#233 = SURFACE_STYLE_FILL_AREA ( #240 ) ;
#234 = PRODUCT_DEFINITION_SHAPE ( 'NONE', 'NONE',  #256 ) ;
#235 = AXIS2_PLACEMENT_3D ( 'NONE', #216, #239, #221 ) ;
#236 =( NAMED_UNIT ( * ) PLANE_ANGLE_UNIT ( ) SI_UNIT ( $, .RADIAN. ) );
#237 = PRESENTATION_STYLE_ASSIGNMENT (( #220 ) ) ;
#238 = SURFACE_SIDE_STYLE ('',( #233 ) ) ;
#239 = DIRECTION ( 'NONE',  ( -0.0000000000000000000, -0.0000000000000000000, 1.000000000000000000 ) ) ;
#240 = FILL_AREA_STYLE ('',( #219 ) ) ;
#241 = CARTESIAN_POINT ( 'NONE',  ( 0.0000000000000000000, 0.0000000000000000000, 4.308132045400366600 ) ) ;
#242 = CYLINDRICAL_SURFACE ( 'NONE', #232, 9.000000000000001800 ) ;
#243 = COLOUR_RGB ( '',0.9568627450980391500, 0.9490196078431372100, 0.9607843137254902200 ) ;
#244 = UNCERTAINTY_MEASURE_WITH_UNIT (LENGTH_MEASURE( 1.000000000000000100E-005 ), #217, 'distance_accuracy_value', 'NONE');
#245 =( NAMED_UNIT ( * ) SI_UNIT ( $, .STERADIAN. ) SOLID_ANGLE_UNIT ( ) );
#246 =( GEOMETRIC_REPRESENTATION_CONTEXT ( 3 ) GLOBAL_UNCERTAINTY_ASSIGNED_CONTEXT ( ( #247 ) ) GLOBAL_UNIT_ASSIGNED_CONTEXT ( ( #93, #210, #245 ) ) REPRESENTATION_CONTEXT ( 'NONE', 'WORKASPACE' ) );
#247 = UNCERTAINTY_MEASURE_WITH_UNIT (LENGTH_MEASURE( 1.000000000000000100E-005 ), #93, 'distance_accuracy_value', 'NONE');
#248 = DIRECTION ( 'NONE',  ( 0.0000000000000000000, 0.0000000000000000000, 1.000000000000000000 ) ) ;
#249 = AXIS2_PLACEMENT_3D ( 'NONE', #250, #248, #251 ) ;
#250 = CARTESIAN_POINT ( 'NONE',  ( 0.0000000000000000000, 0.0000000000000000000, 0.0000000000000000000 ) ) ;
#251 = DIRECTION ( 'NONE',  ( 1.000000000000000000, 0.0000000000000000000, 0.0000000000000000000 ) ) ;
#252 = APPLICATION_CONTEXT ( 'automotive_design' ) ;
#253 = PRODUCT ( '4576-E0W', '4576-E0W', '', ( #259 ) ) ;
#254 = PRODUCT_RELATED_PRODUCT_CATEGORY ( 'part', '', ( #253 ) ) ;
#255 = PRODUCT_DEFINITION_FORMATION_WITH_SPECIFIED_SOURCE ( 'ANY', '', #253, .NOT_KNOWN. ) ;
#256 = PRODUCT_DEFINITION ( 'UNKNOWN', '', #255, #257 ) ;
#257 = PRODUCT_DEFINITION_CONTEXT ( 'detailed design', #252, 'design' ) ;
#258 = APPLICATION_PROTOCOL_DEFINITION ( 'draft international standard', 'automotive_design', 1998, #252 ) ;
#259 = PRODUCT_CONTEXT ( 'NONE', #261, 'mechanical' ) ;
#260 = APPLICATION_PROTOCOL_DEFINITION ( 'draft international standard', 'automotive_design', 1998, #261 ) ;
#261 = APPLICATION_CONTEXT ( 'automotive_design' ) ;
ENDSEC;
END-ISO-10303-21;
