ISO-10303-21;
HEADER;
FILE_DESCRIPTION (( 'STEP AP203' ),
    '1' );
FILE_NAME ('Web Model 39283_39283.step',
    '2018-10-09T13:25:16',
    ( '' ),
    ( '' ),
    'SwSTEP 2.0',
    'SolidWorks 2016',
    '' );
FILE_SCHEMA (( 'CONFIG_CONTROL_DESIGN' ));
ENDSEC;

DATA;
#1 = COORDINATED_UNIVERSAL_TIME_OFFSET ( 5, 0, .BEHIND. ) ;
#2 = CC_DESIGN_APPROVAL ( #85, ( #50 ) ) ;
#3 = LOCAL_TIME ( 9, 25, 16.00000000000000000, #67 ) ;
#4 = PERSON_AND_ORGANIZATION ( #81, #62 ) ;
#5 = DIRECTION ( 'NONE',  ( 1.000000000000000000, 0.0000000000000000000, -0.0000000000000000000 ) ) ;
#6 = CALENDAR_DATE ( 2018, 9, 10 ) ;
#7 = DIRECTION ( 'NONE',  ( 1.000000000000000000, 0.0000000000000000000, 0.0000000000000000000 ) ) ;
#8 = CC_DESIGN_PERSON_AND_ORGANIZATION_ASSIGNMENT ( #48, #45, ( #148 ) ) ;
#9 = CARTESIAN_POINT ( 'NONE',  ( -6.350000000000002300, 0.0000000000000000000, 1.500000000000000000 ) ) ;
#10 = APPROVAL_PERSON_ORGANIZATION ( #4, #85, #58 ) ;
#11 = MECHANICAL_CONTEXT ( 'NONE', #123, 'mechanical' ) ;
#12 = PRODUCT_RELATED_PRODUCT_CATEGORY ( 'detail', '', ( #90 ) ) ;
#13 = PERSON_AND_ORGANIZATION ( #81, #62 ) ;
#14 = VERTEX_POINT ( 'NONE', #104 ) ;
#15 = APPROVAL_DATE_TIME ( #127, #106 ) ;
#16 = PERSON_AND_ORGANIZATION_ROLE ( 'classification_officer' ) ;
#17 = CC_DESIGN_DATE_AND_TIME_ASSIGNMENT ( #124, #128, ( #102 ) ) ;
#18 = DIRECTION ( 'NONE',  ( 0.0000000000000000000, 0.0000000000000000000, 1.000000000000000000 ) ) ;
#19 = CARTESIAN_POINT ( 'NONE',  ( 0.0000000000000000000, 0.0000000000000000000, 1.500000000000000000 ) ) ;
#20 = CC_DESIGN_APPROVAL ( #106, ( #148 ) ) ;
#21 = CALENDAR_DATE ( 2018, 9, 10 ) ;
#22 = PLANE ( 'NONE',  #83 ) ;
#23 = CARTESIAN_POINT ( 'NONE',  ( 0.0000000000000000000, 0.0000000000000000000, 1.500000000000000000 ) ) ;
#24 = APPROVAL_DATE_TIME ( #135, #85 ) ;
#25 = ORIENTED_EDGE ( 'NONE', *, *, #164, .F. ) ;
#26 = PERSON_AND_ORGANIZATION_ROLE ( 'design_supplier' ) ;
#27 = MANIFOLD_SOLID_BREP ( 'Boss-Extrude1', #175 ) ;
#28 = APPLICATION_PROTOCOL_DEFINITION ( 'international standard', 'config_control_design', 1994, #107 ) ;
#29 = ORIENTED_EDGE ( 'NONE', *, *, #91, .F. ) ;
#30 = CALENDAR_DATE ( 2018, 9, 10 ) ;
#31 = ORIENTED_EDGE ( 'NONE', *, *, #80, .F. ) ;
#32 = ADVANCED_FACE ( 'NONE', ( #88 ), #143, .T. ) ;
#33 = CARTESIAN_POINT ( 'NONE',  ( 0.0000000000000000000, 0.0000000000000000000, 1.500000000000000000 ) ) ;
#34 = DIRECTION ( 'NONE',  ( 0.0000000000000000000, 0.0000000000000000000, 1.000000000000000000 ) ) ;
#35 = CYLINDRICAL_SURFACE ( 'NONE', #149, 6.350000000000002300 ) ;
#36 = EDGE_CURVE ( 'NONE', #14, #101, #125, .T. ) ;
#37 = CARTESIAN_POINT ( 'NONE',  ( 0.0000000000000000000, 0.0000000000000000000, -1.500000000000000000 ) ) ;
#38 = AXIS2_PLACEMENT_3D ( 'NONE', #168, #66, #169 ) ;
#39 = APPLICATION_PROTOCOL_DEFINITION ( 'international standard', 'config_control_design', 1994, #123 ) ;
#40 = DIRECTION ( 'NONE',  ( 1.000000000000000000, 0.0000000000000000000, -0.0000000000000000000 ) ) ;
#41 = CC_DESIGN_PERSON_AND_ORGANIZATION_ASSIGNMENT ( #13, #76, ( #50 ) ) ;
#42 =( NAMED_UNIT ( * ) SI_UNIT ( $, .STERADIAN. ) SOLID_ANGLE_UNIT ( ) );
#43 = PERSON_AND_ORGANIZATION ( #81, #62 ) ;
#44 = ORIENTED_EDGE ( 'NONE', *, *, #68, .F. ) ;
#45 = PERSON_AND_ORGANIZATION_ROLE ( 'creator' ) ;
#46 = APPROVAL_STATUS ( 'not_yet_approved' ) ;
#47 = CC_DESIGN_PERSON_AND_ORGANIZATION_ASSIGNMENT ( #96, #84, ( #90 ) ) ;
#48 = PERSON_AND_ORGANIZATION ( #81, #62 ) ;
#49 = DATE_AND_TIME ( #89, #3 ) ;
#50 = PRODUCT_DEFINITION_FORMATION_WITH_SPECIFIED_SOURCE ( 'ANY', '', #90, .NOT_KNOWN. ) ;
#51 = CIRCLE ( 'NONE', #121, 6.350000000000002300 ) ;
#52 = APPROVAL_PERSON_ORGANIZATION ( #74, #106, #110 ) ;
#53 = COORDINATED_UNIVERSAL_TIME_OFFSET ( 5, 0, .BEHIND. ) ;
#54 = DIRECTION ( 'NONE',  ( -0.0000000000000000000, -0.0000000000000000000, -1.000000000000000000 ) ) ;
#55 =( LENGTH_UNIT ( ) NAMED_UNIT ( * ) SI_UNIT ( .MILLI., .METRE. ) );
#56 = APPROVAL_ROLE ( '' ) ;
#57 = CYLINDRICAL_SURFACE ( 'NONE', #166, 6.350000000000002300 ) ;
#58 = APPROVAL_ROLE ( '' ) ;
#59 = PRODUCT_DEFINITION_SHAPE ( 'NONE', 'NONE',  #148 ) ;
#60 = LOCAL_TIME ( 9, 25, 16.00000000000000000, #140 ) ;
#61 = VECTOR ( 'NONE', #54, 1000.000000000000000 ) ;
#62 = ORGANIZATION ( 'UNSPECIFIED', 'UNSPECIFIED', '' ) ;
#63 = FACE_OUTER_BOUND ( 'NONE', #113, .T. ) ;
#64 = ADVANCED_FACE ( 'NONE', ( #165 ), #57, .T. ) ;
#65 = DIRECTION ( 'NONE',  ( 0.0000000000000000000, 0.0000000000000000000, 1.000000000000000000 ) ) ;
#66 = DIRECTION ( 'NONE',  ( 0.0000000000000000000, 0.0000000000000000000, 1.000000000000000000 ) ) ;
#67 = COORDINATED_UNIVERSAL_TIME_OFFSET ( 5, 0, .BEHIND. ) ;
#68 = EDGE_CURVE ( 'NONE', #101, #14, #51, .T. ) ;
#69 = ORIENTED_EDGE ( 'NONE', *, *, #68, .T. ) ;
#70 = CC_DESIGN_PERSON_AND_ORGANIZATION_ASSIGNMENT ( #43, #26, ( #50 ) ) ;
#71 = DIRECTION ( 'NONE',  ( 0.0000000000000000000, 0.0000000000000000000, 1.000000000000000000 ) ) ;
#72 = CARTESIAN_POINT ( 'NONE',  ( 6.350000000000002300, 7.776507174585695100E-016, 1.500000000000000000 ) ) ;
#73 = ORIENTED_EDGE ( 'NONE', *, *, #79, .T. ) ;
#74 = PERSON_AND_ORGANIZATION ( #81, #62 ) ;
#75 = CARTESIAN_POINT ( 'NONE',  ( 6.350000000000002300, 7.776507174585695100E-016, 1.500000000000000000 ) ) ;
#76 = PERSON_AND_ORGANIZATION_ROLE ( 'creator' ) ;
#77 = CALENDAR_DATE ( 2018, 9, 10 ) ;
#78 = AXIS2_PLACEMENT_3D ( 'NONE', #33, #34, #134 ) ;
#79 = EDGE_CURVE ( 'NONE', #117, #167, #99, .T. ) ;
#80 = EDGE_CURVE ( 'NONE', #167, #117, #97, .T. ) ;
#81 = PERSON ( 'UNSPECIFIED', 'UNSPECIFIED', 'UNSPECIFIED', ('UNSPECIFIED'), ('UNSPECIFIED'), ('UNSPECIFIED') ) ;
#82 = DIRECTION ( 'NONE',  ( 0.0000000000000000000, 0.0000000000000000000, 1.000000000000000000 ) ) ;
#83 = AXIS2_PLACEMENT_3D ( 'NONE', #105, #144, #40 ) ;
#84 = PERSON_AND_ORGANIZATION_ROLE ( 'design_owner' ) ;
#85 = APPROVAL ( #46, 'UNSPECIFIED' ) ;
#86 = SECURITY_CLASSIFICATION_LEVEL ( 'unclassified' ) ;
#87 = PERSON_AND_ORGANIZATION ( #81, #62 ) ;
#88 = FACE_OUTER_BOUND ( 'NONE', #173, .T. ) ;
#89 = CALENDAR_DATE ( 2018, 9, 10 ) ;
#90 = PRODUCT ( 'Web Model 39283_39283', 'Web Model 39283_39283', '', ( #11 ) ) ;
#91 = EDGE_CURVE ( 'NONE', #167, #14, #133, .T. ) ;
#92 = DIRECTION ( 'NONE',  ( -1.000000000000000000, 0.0000000000000000000, 0.0000000000000000000 ) ) ;
#93 = AXIS2_PLACEMENT_3D ( 'NONE', #19, #71, #5 ) ;
#94 = CARTESIAN_POINT ( 'NONE',  ( -6.350000000000002300, 0.0000000000000000000, 1.500000000000000000 ) ) ;
#95 = DIRECTION ( 'NONE',  ( -1.000000000000000000, 0.0000000000000000000, 0.0000000000000000000 ) ) ;
#96 = PERSON_AND_ORGANIZATION ( #81, #62 ) ;
#97 = CIRCLE ( 'NONE', #78, 6.350000000000002300 ) ;
#98 = APPROVAL_STATUS ( 'not_yet_approved' ) ;
#99 = CIRCLE ( 'NONE', #114, 6.350000000000002300 ) ;
#100 = LOCAL_TIME ( 9, 25, 16.00000000000000000, #53 ) ;
#101 = VERTEX_POINT ( 'NONE', #154 ) ;
#102 = SECURITY_CLASSIFICATION ( '', '', #86 ) ;
#103 = ORIENTED_EDGE ( 'NONE', *, *, #164, .T. ) ;
#104 = CARTESIAN_POINT ( 'NONE',  ( -6.350000000000002300, 0.0000000000000000000, -1.500000000000000000 ) ) ;
#105 = CARTESIAN_POINT ( 'NONE',  ( 0.0000000000000000000, 0.0000000000000000000, -1.500000000000000000 ) ) ;
#106 = APPROVAL ( #98, 'UNSPECIFIED' ) ;
#107 = APPLICATION_CONTEXT ( 'configuration controlled 3d designs of mechanical parts and assemblies' ) ;
#108 = APPROVAL_DATE_TIME ( #49, #126 ) ;
#109 = EDGE_LOOP ( 'NONE', ( #153, #103, #69, #29 ) ) ;
#110 = APPROVAL_ROLE ( '' ) ;
#111 = DATE_TIME_ROLE ( 'creation_date' ) ;
#112 = CC_DESIGN_APPROVAL ( #126, ( #102 ) ) ;
#113 = EDGE_LOOP ( 'NONE', ( #25, #31, #157, #118 ) ) ;
#114 = AXIS2_PLACEMENT_3D ( 'NONE', #119, #65, #7 ) ;
#115 = CC_DESIGN_PERSON_AND_ORGANIZATION_ASSIGNMENT ( #136, #16, ( #102 ) ) ;
#116 = DIRECTION ( 'NONE',  ( -0.0000000000000000000, -0.0000000000000000000, -1.000000000000000000 ) ) ;
#117 = VERTEX_POINT ( 'NONE', #72 ) ;
#118 = ORIENTED_EDGE ( 'NONE', *, *, #36, .T. ) ;
#119 = CARTESIAN_POINT ( 'NONE',  ( 0.0000000000000000000, 0.0000000000000000000, 1.500000000000000000 ) ) ;
#120 = ADVANCED_FACE ( 'NONE', ( #141 ), #22, .F. ) ;
#121 = AXIS2_PLACEMENT_3D ( 'NONE', #37, #18, #131 ) ;
#122 =( NAMED_UNIT ( * ) PLANE_ANGLE_UNIT ( ) SI_UNIT ( $, .RADIAN. ) );
#123 = APPLICATION_CONTEXT ( 'configuration controlled 3d designs of mechanical parts and assemblies' ) ;
#124 = DATE_AND_TIME ( #6, #100 ) ;
#125 = CIRCLE ( 'NONE', #38, 6.350000000000002300 ) ;
#126 = APPROVAL ( #162, 'UNSPECIFIED' ) ;
#127 = DATE_AND_TIME ( #77, #130 ) ;
#128 = DATE_TIME_ROLE ( 'classification_date' ) ;
#129 = CC_DESIGN_SECURITY_CLASSIFICATION ( #102, ( #50 ) ) ;
#130 = LOCAL_TIME ( 9, 25, 16.00000000000000000, #155 ) ;
#131 = DIRECTION ( 'NONE',  ( 1.000000000000000000, 0.0000000000000000000, 0.0000000000000000000 ) ) ;
#132 = DESIGN_CONTEXT ( 'detailed design', #107, 'design' ) ;
#133 = LINE ( 'NONE', #9, #152 ) ;
#134 = DIRECTION ( 'NONE',  ( 1.000000000000000000, 0.0000000000000000000, 0.0000000000000000000 ) ) ;
#135 = DATE_AND_TIME ( #30, #60 ) ;
#136 = PERSON_AND_ORGANIZATION ( #81, #62 ) ;
#137 = AXIS2_PLACEMENT_3D ( 'NONE', #145, #82, #159 ) ;
#138 = LINE ( 'NONE', #75, #61 ) ;
#139 = ADVANCED_BREP_SHAPE_REPRESENTATION ( 'Web Model 39283_39283', ( #27, #137 ), #160 ) ;
#140 = COORDINATED_UNIVERSAL_TIME_OFFSET ( 5, 0, .BEHIND. ) ;
#141 = FACE_OUTER_BOUND ( 'NONE', #147, .T. ) ;
#142 = DIRECTION ( 'NONE',  ( -0.0000000000000000000, -0.0000000000000000000, -1.000000000000000000 ) ) ;
#143 = PLANE ( 'NONE',  #93 ) ;
#144 = DIRECTION ( 'NONE',  ( 0.0000000000000000000, 0.0000000000000000000, 1.000000000000000000 ) ) ;
#145 = CARTESIAN_POINT ( 'NONE',  ( 0.0000000000000000000, 0.0000000000000000000, 0.0000000000000000000 ) ) ;
#146 = APPROVAL_PERSON_ORGANIZATION ( #87, #126, #56 ) ;
#147 = EDGE_LOOP ( 'NONE', ( #161, #44 ) ) ;
#148 = PRODUCT_DEFINITION ( 'UNKNOWN', '', #50, #132 ) ;
#149 = AXIS2_PLACEMENT_3D ( 'NONE', #23, #172, #95 ) ;
#150 = LOCAL_TIME ( 9, 25, 16.00000000000000000, #1 ) ;
#151 = ADVANCED_FACE ( 'NONE', ( #63 ), #35, .T. ) ;
#152 = VECTOR ( 'NONE', #116, 1000.000000000000000 ) ;
#153 = ORIENTED_EDGE ( 'NONE', *, *, #79, .F. ) ;
#154 = CARTESIAN_POINT ( 'NONE',  ( 6.350000000000002300, 7.776507174585695100E-016, -1.500000000000000000 ) ) ;
#155 = COORDINATED_UNIVERSAL_TIME_OFFSET ( 5, 0, .BEHIND. ) ;
#156 = ORIENTED_EDGE ( 'NONE', *, *, #80, .T. ) ;
#157 = ORIENTED_EDGE ( 'NONE', *, *, #91, .T. ) ;
#158 = CARTESIAN_POINT ( 'NONE',  ( 0.0000000000000000000, 0.0000000000000000000, 1.500000000000000000 ) ) ;
#159 = DIRECTION ( 'NONE',  ( 1.000000000000000000, 0.0000000000000000000, 0.0000000000000000000 ) ) ;
#160 =( GEOMETRIC_REPRESENTATION_CONTEXT ( 3 ) GLOBAL_UNCERTAINTY_ASSIGNED_CONTEXT ( ( #170 ) ) GLOBAL_UNIT_ASSIGNED_CONTEXT ( ( #55, #122, #42 ) ) REPRESENTATION_CONTEXT ( 'NONE', 'WORKASPACE' ) );
#161 = ORIENTED_EDGE ( 'NONE', *, *, #36, .F. ) ;
#162 = APPROVAL_STATUS ( 'not_yet_approved' ) ;
#163 = DATE_AND_TIME ( #21, #150 ) ;
#164 = EDGE_CURVE ( 'NONE', #117, #101, #138, .T. ) ;
#165 = FACE_OUTER_BOUND ( 'NONE', #109, .T. ) ;
#166 = AXIS2_PLACEMENT_3D ( 'NONE', #158, #142, #92 ) ;
#167 = VERTEX_POINT ( 'NONE', #94 ) ;
#168 = CARTESIAN_POINT ( 'NONE',  ( 0.0000000000000000000, 0.0000000000000000000, -1.500000000000000000 ) ) ;
#169 = DIRECTION ( 'NONE',  ( 1.000000000000000000, 0.0000000000000000000, 0.0000000000000000000 ) ) ;
#170 = UNCERTAINTY_MEASURE_WITH_UNIT (LENGTH_MEASURE( 1.000000000000000100E-005 ), #55, 'distance_accuracy_value', 'NONE');
#171 = CC_DESIGN_DATE_AND_TIME_ASSIGNMENT ( #163, #111, ( #148 ) ) ;
#172 = DIRECTION ( 'NONE',  ( -0.0000000000000000000, -0.0000000000000000000, -1.000000000000000000 ) ) ;
#173 = EDGE_LOOP ( 'NONE', ( #156, #73 ) ) ;
#174 = SHAPE_DEFINITION_REPRESENTATION ( #59, #139 ) ;
#175 = CLOSED_SHELL ( 'NONE', ( #64, #151, #32, #120 ) ) ;
ENDSEC;
END-ISO-10303-21;
