ISO-10303-21;
HEADER;
FILE_DESCRIPTION (( 'STEP AP203' ),
    '1' );
FILE_NAME ('Web Model 45464_36976.step',
    '2019-01-07T15:37:04',
    ( '' ),
    ( '' ),
    'SwSTEP 2.0',
    'SolidWorks 2016',
    '' );
FILE_SCHEMA (( 'CONFIG_CONTROL_DESIGN' ));
ENDSEC;

DATA;
#1 = EDGE_CURVE ( 'NONE', #117, #90, #153, .T. ) ;
#2 = CALENDAR_DATE ( 2019, 7, 1 ) ;
#3 = PRODUCT ( 'Web Model 45464_36976', 'Web Model 45464_36976', '', ( #23 ) ) ;
#4 = DATE_AND_TIME ( #172, #122 ) ;
#5 = CARTESIAN_POINT ( 'NONE',  ( 0.0000000000000000000, 0.0000000000000000000, -1.000000000000000000 ) ) ;
#6 = CC_DESIGN_PERSON_AND_ORGANIZATION_ASSIGNMENT ( #50, #114, ( #30 ) ) ;
#7 = DIRECTION ( 'NONE',  ( 0.0000000000000000000, 0.0000000000000000000, 1.000000000000000000 ) ) ;
#8 = DIRECTION ( 'NONE',  ( 1.000000000000000000, 0.0000000000000000000, -0.0000000000000000000 ) ) ;
#9 = DIRECTION ( 'NONE',  ( 1.000000000000000000, 0.0000000000000000000, 0.0000000000000000000 ) ) ;
#10 = PERSON_AND_ORGANIZATION_ROLE ( 'creator' ) ;
#11 = DIRECTION ( 'NONE',  ( 1.000000000000000000, 0.0000000000000000000, 0.0000000000000000000 ) ) ;
#12 = CALENDAR_DATE ( 2019, 7, 1 ) ;
#13 = COORDINATED_UNIVERSAL_TIME_OFFSET ( 5, 0, .BEHIND. ) ;
#14 = ORIENTED_EDGE ( 'NONE', *, *, #81, .T. ) ;
#15 = SECURITY_CLASSIFICATION ( '', '', #100 ) ;
#16 = COORDINATED_UNIVERSAL_TIME_OFFSET ( 5, 0, .BEHIND. ) ;
#17 = ORIENTED_EDGE ( 'NONE', *, *, #121, .T. ) ;
#18 = CC_DESIGN_PERSON_AND_ORGANIZATION_ASSIGNMENT ( #63, #40, ( #104 ) ) ;
#19 = DIRECTION ( 'NONE',  ( 1.000000000000000000, 0.0000000000000000000, -0.0000000000000000000 ) ) ;
#20 = PERSON_AND_ORGANIZATION ( #84, #43 ) ;
#21 = CIRCLE ( 'NONE', #134, 10.00000000000000000 ) ;
#22 = DIRECTION ( 'NONE',  ( 0.0000000000000000000, 0.0000000000000000000, 1.000000000000000000 ) ) ;
#23 = MECHANICAL_CONTEXT ( 'NONE', #66, 'mechanical' ) ;
#24 = LOCAL_TIME ( 10, 37, 4.000000000000000000, #13 ) ;
#25 = APPROVAL_STATUS ( 'not_yet_approved' ) ;
#26 = ADVANCED_FACE ( 'NONE', ( #159 ), #163, .T. ) ;
#27 = PRODUCT_RELATED_PRODUCT_CATEGORY ( 'detail', '', ( #3 ) ) ;
#28 = ORIENTED_EDGE ( 'NONE', *, *, #1, .T. ) ;
#29 = ORIENTED_EDGE ( 'NONE', *, *, #83, .F. ) ;
#30 = PRODUCT_DEFINITION_FORMATION_WITH_SPECIFIED_SOURCE ( 'ANY', '', #3, .NOT_KNOWN. ) ;
#31 = CIRCLE ( 'NONE', #87, 10.00000000000000000 ) ;
#32 = VECTOR ( 'NONE', #156, 1000.000000000000000 ) ;
#33 = APPROVAL ( #25, 'UNSPECIFIED' ) ;
#34 = CARTESIAN_POINT ( 'NONE',  ( 0.0000000000000000000, 0.0000000000000000000, -1.000000000000000000 ) ) ;
#35 = DIRECTION ( 'NONE',  ( 0.0000000000000000000, 0.0000000000000000000, 1.000000000000000000 ) ) ;
#36 = CARTESIAN_POINT ( 'NONE',  ( -10.00000000000000000, 0.0000000000000000000, 1.000000000000000000 ) ) ;
#37 = EDGE_LOOP ( 'NONE', ( #141, #99 ) ) ;
#38 = DIRECTION ( 'NONE',  ( 1.000000000000000000, 0.0000000000000000000, 0.0000000000000000000 ) ) ;
#39 = DATE_TIME_ROLE ( 'classification_date' ) ;
#40 = PERSON_AND_ORGANIZATION_ROLE ( 'creator' ) ;
#41 = AXIS2_PLACEMENT_3D ( 'NONE', #125, #22, #8 ) ;
#42 = ADVANCED_FACE ( 'NONE', ( #133 ), #132, .T. ) ;
#43 = ORGANIZATION ( 'UNSPECIFIED', 'UNSPECIFIED', '' ) ;
#44 = AXIS2_PLACEMENT_3D ( 'NONE', #126, #166, #144 ) ;
#45 = APPROVAL_PERSON_ORGANIZATION ( #93, #51, #89 ) ;
#46 = APPROVAL_DATE_TIME ( #103, #118 ) ;
#47 = CLOSED_SHELL ( 'NONE', ( #42, #26, #160, #130 ) ) ;
#48 = CALENDAR_DATE ( 2019, 7, 1 ) ;
#49 = FACE_OUTER_BOUND ( 'NONE', #37, .T. ) ;
#50 = PERSON_AND_ORGANIZATION ( #84, #43 ) ;
#51 = APPROVAL ( #76, 'UNSPECIFIED' ) ;
#52 = CARTESIAN_POINT ( 'NONE',  ( 0.0000000000000000000, 0.0000000000000000000, 1.000000000000000000 ) ) ;
#53 = ORIENTED_EDGE ( 'NONE', *, *, #81, .F. ) ;
#54 = CARTESIAN_POINT ( 'NONE',  ( 0.0000000000000000000, 0.0000000000000000000, 1.000000000000000000 ) ) ;
#55 = PERSON_AND_ORGANIZATION ( #84, #43 ) ;
#56 = DIRECTION ( 'NONE',  ( -1.000000000000000000, 0.0000000000000000000, 0.0000000000000000000 ) ) ;
#57 = APPLICATION_PROTOCOL_DEFINITION ( 'international standard', 'config_control_design', 1994, #170 ) ;
#58 = ORIENTED_EDGE ( 'NONE', *, *, #1, .F. ) ;
#59 = AXIS2_PLACEMENT_3D ( 'NONE', #34, #67, #9 ) ;
#60 = APPROVAL_PERSON_ORGANIZATION ( #131, #33, #115 ) ;
#61 = APPROVAL_DATE_TIME ( #72, #51 ) ;
#62 = CC_DESIGN_APPROVAL ( #118, ( #15 ) ) ;
#63 = PERSON_AND_ORGANIZATION ( #84, #43 ) ;
#64 = DIRECTION ( 'NONE',  ( -0.0000000000000000000, -0.0000000000000000000, -1.000000000000000000 ) ) ;
#65 = FACE_OUTER_BOUND ( 'NONE', #135, .T. ) ;
#66 = APPLICATION_CONTEXT ( 'configuration controlled 3d designs of mechanical parts and assemblies' ) ;
#67 = DIRECTION ( 'NONE',  ( 0.0000000000000000000, 0.0000000000000000000, 1.000000000000000000 ) ) ;
#68 = PERSON_AND_ORGANIZATION_ROLE ( 'classification_officer' ) ;
#69 = VERTEX_POINT ( 'NONE', #142 ) ;
#70 = PRODUCT_DEFINITION_SHAPE ( 'NONE', 'NONE',  #104 ) ;
#71 = EDGE_CURVE ( 'NONE', #69, #175, #79, .T. ) ;
#72 = DATE_AND_TIME ( #48, #148 ) ;
#73 =( NAMED_UNIT ( * ) SI_UNIT ( $, .STERADIAN. ) SOLID_ANGLE_UNIT ( ) );
#74 = DIRECTION ( 'NONE',  ( 1.000000000000000000, 0.0000000000000000000, 0.0000000000000000000 ) ) ;
#75 = DIRECTION ( 'NONE',  ( 0.0000000000000000000, 0.0000000000000000000, 1.000000000000000000 ) ) ;
#76 = APPROVAL_STATUS ( 'not_yet_approved' ) ;
#77 = APPROVAL_DATE_TIME ( #108, #33 ) ;
#78 = PERSON_AND_ORGANIZATION ( #84, #43 ) ;
#79 = CIRCLE ( 'NONE', #59, 10.00000000000000000 ) ;
#80 = COORDINATED_UNIVERSAL_TIME_OFFSET ( 5, 0, .BEHIND. ) ;
#81 = EDGE_CURVE ( 'NONE', #90, #69, #164, .T. ) ;
#82 = MANIFOLD_SOLID_BREP ( 'Boss-Extrude1', #47 ) ;
#83 = EDGE_CURVE ( 'NONE', #90, #117, #21, .T. ) ;
#84 = PERSON ( 'UNSPECIFIED', 'UNSPECIFIED', 'UNSPECIFIED', ('UNSPECIFIED'), ('UNSPECIFIED'), ('UNSPECIFIED') ) ;
#85 = DIRECTION ( 'NONE',  ( 0.0000000000000000000, 0.0000000000000000000, 1.000000000000000000 ) ) ;
#86 = CARTESIAN_POINT ( 'NONE',  ( 0.0000000000000000000, 0.0000000000000000000, -1.000000000000000000 ) ) ;
#87 = AXIS2_PLACEMENT_3D ( 'NONE', #86, #85, #38 ) ;
#88 = APPLICATION_PROTOCOL_DEFINITION ( 'international standard', 'config_control_design', 1994, #66 ) ;
#89 = APPROVAL_ROLE ( '' ) ;
#90 = VERTEX_POINT ( 'NONE', #98 ) ;
#91 = APPROVAL_STATUS ( 'not_yet_approved' ) ;
#92 = DESIGN_CONTEXT ( 'detailed design', #170, 'design' ) ;
#93 = PERSON_AND_ORGANIZATION ( #84, #43 ) ;
#94 = ORIENTED_EDGE ( 'NONE', *, *, #83, .T. ) ;
#95 =( GEOMETRIC_REPRESENTATION_CONTEXT ( 3 ) GLOBAL_UNCERTAINTY_ASSIGNED_CONTEXT ( ( #161 ) ) GLOBAL_UNIT_ASSIGNED_CONTEXT ( ( #137, #110, #73 ) ) REPRESENTATION_CONTEXT ( 'NONE', 'WORKASPACE' ) );
#96 = SHAPE_DEFINITION_REPRESENTATION ( #70, #105 ) ;
#97 = CARTESIAN_POINT ( 'NONE',  ( 10.00000000000000000, 1.224646799147353300E-015, -1.000000000000000000 ) ) ;
#98 = CARTESIAN_POINT ( 'NONE',  ( -10.00000000000000000, 0.0000000000000000000, 1.000000000000000000 ) ) ;
#99 = ORIENTED_EDGE ( 'NONE', *, *, #116, .F. ) ;
#100 = SECURITY_CLASSIFICATION_LEVEL ( 'unclassified' ) ;
#101 = DIRECTION ( 'NONE',  ( 0.0000000000000000000, 0.0000000000000000000, 1.000000000000000000 ) ) ;
#102 = COORDINATED_UNIVERSAL_TIME_OFFSET ( 5, 0, .BEHIND. ) ;
#103 = DATE_AND_TIME ( #150, #173 ) ;
#104 = PRODUCT_DEFINITION ( 'UNKNOWN', '', #30, #92 ) ;
#105 = ADVANCED_BREP_SHAPE_REPRESENTATION ( 'Web Model 45464_36976', ( #82, #139 ), #95 ) ;
#106 = ORIENTED_EDGE ( 'NONE', *, *, #71, .T. ) ;
#107 = APPROVAL_PERSON_ORGANIZATION ( #55, #118, #128 ) ;
#108 = DATE_AND_TIME ( #12, #146 ) ;
#109 = COORDINATED_UNIVERSAL_TIME_OFFSET ( 5, 0, .BEHIND. ) ;
#110 =( NAMED_UNIT ( * ) PLANE_ANGLE_UNIT ( ) SI_UNIT ( $, .RADIAN. ) );
#111 = AXIS2_PLACEMENT_3D ( 'NONE', #158, #75, #165 ) ;
#112 = PLANE ( 'NONE',  #169 ) ;
#113 = ORIENTED_EDGE ( 'NONE', *, *, #121, .F. ) ;
#114 = PERSON_AND_ORGANIZATION_ROLE ( 'design_supplier' ) ;
#115 = APPROVAL_ROLE ( '' ) ;
#116 = EDGE_CURVE ( 'NONE', #175, #69, #31, .T. ) ;
#117 = VERTEX_POINT ( 'NONE', #124 ) ;
#118 = APPROVAL ( #91, 'UNSPECIFIED' ) ;
#119 = EDGE_LOOP ( 'NONE', ( #58, #17, #157, #53 ) ) ;
#120 = LINE ( 'NONE', #138, #32 ) ;
#121 = EDGE_CURVE ( 'NONE', #117, #175, #120, .T. ) ;
#122 = LOCAL_TIME ( 10, 37, 4.000000000000000000, #102 ) ;
#123 = VECTOR ( 'NONE', #168, 1000.000000000000000 ) ;
#124 = CARTESIAN_POINT ( 'NONE',  ( 10.00000000000000000, 1.224646799147353300E-015, 1.000000000000000000 ) ) ;
#125 = CARTESIAN_POINT ( 'NONE',  ( 0.0000000000000000000, 0.0000000000000000000, 1.000000000000000000 ) ) ;
#126 = CARTESIAN_POINT ( 'NONE',  ( 0.0000000000000000000, 0.0000000000000000000, 1.000000000000000000 ) ) ;
#127 = CARTESIAN_POINT ( 'NONE',  ( 0.0000000000000000000, 0.0000000000000000000, 0.0000000000000000000 ) ) ;
#128 = APPROVAL_ROLE ( '' ) ;
#129 = CC_DESIGN_SECURITY_CLASSIFICATION ( #15, ( #30 ) ) ;
#130 = ADVANCED_FACE ( 'NONE', ( #49 ), #112, .F. ) ;
#131 = PERSON_AND_ORGANIZATION ( #84, #43 ) ;
#132 = CYLINDRICAL_SURFACE ( 'NONE', #162, 10.00000000000000000 ) ;
#133 = FACE_OUTER_BOUND ( 'NONE', #119, .T. ) ;
#134 = AXIS2_PLACEMENT_3D ( 'NONE', #52, #35, #74 ) ;
#135 = EDGE_LOOP ( 'NONE', ( #94, #28 ) ) ;
#136 = CC_DESIGN_PERSON_AND_ORGANIZATION_ASSIGNMENT ( #154, #68, ( #15 ) ) ;
#137 =( LENGTH_UNIT ( ) NAMED_UNIT ( * ) SI_UNIT ( .MILLI., .METRE. ) );
#138 = CARTESIAN_POINT ( 'NONE',  ( 10.00000000000000000, 1.224646799147353300E-015, 1.000000000000000000 ) ) ;
#139 = AXIS2_PLACEMENT_3D ( 'NONE', #127, #101, #11 ) ;
#140 = PLANE ( 'NONE',  #41 ) ;
#141 = ORIENTED_EDGE ( 'NONE', *, *, #71, .F. ) ;
#142 = CARTESIAN_POINT ( 'NONE',  ( -10.00000000000000000, 0.0000000000000000000, -1.000000000000000000 ) ) ;
#143 = DATE_AND_TIME ( #2, #24 ) ;
#144 = DIRECTION ( 'NONE',  ( -1.000000000000000000, 0.0000000000000000000, 0.0000000000000000000 ) ) ;
#145 = DATE_TIME_ROLE ( 'creation_date' ) ;
#146 = LOCAL_TIME ( 10, 37, 4.000000000000000000, #16 ) ;
#147 = CC_DESIGN_APPROVAL ( #33, ( #104 ) ) ;
#148 = LOCAL_TIME ( 10, 37, 4.000000000000000000, #109 ) ;
#149 = CC_DESIGN_PERSON_AND_ORGANIZATION_ASSIGNMENT ( #78, #10, ( #30 ) ) ;
#150 = CALENDAR_DATE ( 2019, 7, 1 ) ;
#151 = CC_DESIGN_DATE_AND_TIME_ASSIGNMENT ( #143, #39, ( #15 ) ) ;
#152 = EDGE_LOOP ( 'NONE', ( #113, #29, #14, #106 ) ) ;
#153 = CIRCLE ( 'NONE', #111, 10.00000000000000000 ) ;
#154 = PERSON_AND_ORGANIZATION ( #84, #43 ) ;
#155 = CC_DESIGN_DATE_AND_TIME_ASSIGNMENT ( #4, #145, ( #104 ) ) ;
#156 = DIRECTION ( 'NONE',  ( -0.0000000000000000000, -0.0000000000000000000, -1.000000000000000000 ) ) ;
#157 = ORIENTED_EDGE ( 'NONE', *, *, #116, .T. ) ;
#158 = CARTESIAN_POINT ( 'NONE',  ( 0.0000000000000000000, 0.0000000000000000000, 1.000000000000000000 ) ) ;
#159 = FACE_OUTER_BOUND ( 'NONE', #152, .T. ) ;
#160 = ADVANCED_FACE ( 'NONE', ( #65 ), #140, .T. ) ;
#161 = UNCERTAINTY_MEASURE_WITH_UNIT (LENGTH_MEASURE( 1.000000000000000100E-005 ), #137, 'distance_accuracy_value', 'NONE');
#162 = AXIS2_PLACEMENT_3D ( 'NONE', #54, #64, #56 ) ;
#163 = CYLINDRICAL_SURFACE ( 'NONE', #44, 10.00000000000000000 ) ;
#164 = LINE ( 'NONE', #36, #123 ) ;
#165 = DIRECTION ( 'NONE',  ( 1.000000000000000000, 0.0000000000000000000, 0.0000000000000000000 ) ) ;
#166 = DIRECTION ( 'NONE',  ( -0.0000000000000000000, -0.0000000000000000000, -1.000000000000000000 ) ) ;
#167 = CC_DESIGN_PERSON_AND_ORGANIZATION_ASSIGNMENT ( #20, #171, ( #3 ) ) ;
#168 = DIRECTION ( 'NONE',  ( -0.0000000000000000000, -0.0000000000000000000, -1.000000000000000000 ) ) ;
#169 = AXIS2_PLACEMENT_3D ( 'NONE', #5, #7, #19 ) ;
#170 = APPLICATION_CONTEXT ( 'configuration controlled 3d designs of mechanical parts and assemblies' ) ;
#171 = PERSON_AND_ORGANIZATION_ROLE ( 'design_owner' ) ;
#172 = CALENDAR_DATE ( 2019, 7, 1 ) ;
#173 = LOCAL_TIME ( 10, 37, 4.000000000000000000, #80 ) ;
#174 = CC_DESIGN_APPROVAL ( #51, ( #30 ) ) ;
#175 = VERTEX_POINT ( 'NONE', #97 ) ;
ENDSEC;
END-ISO-10303-21;
