ISO-10303-21;
HEADER;
FILE_DESCRIPTION (( 'STEP AP214' ),
    '1' );
FILE_NAME ('3455-E0W.STEP',
    '2009-12-21T16:59:42',
    ( ' ' ),
    ( ' ' ),
    'SwSTEP 2.0',
    'SolidWorks 2009',
    '' );
FILE_SCHEMA (( 'AUTOMOTIVE_DESIGN' ));
ENDSEC;

DATA;
#1 =( LENGTH_UNIT ( ) NAMED_UNIT ( * ) SI_UNIT ( .MILLI., .METRE. ) );
#2 = ORIENTED_EDGE ( 'NONE', *, *, #44, .F. ) ;
#3 = ADVANCED_FACE ( 'NONE', ( #32 ), #102, .F. ) ;
#4 = EDGE_CURVE ( 'NONE', #5, #46, #182, .T. ) ;
#5 = VERTEX_POINT ( 'NONE', #194 ) ;
#6 = ORIENTED_EDGE ( 'NONE', *, *, #4, .T. ) ;
#7 = ORIENTED_EDGE ( 'NONE', *, *, #58, .T. ) ;
#8 = ORIENTED_EDGE ( 'NONE', *, *, #36, .T. ) ;
#9 = VERTEX_POINT ( 'NONE', #84 ) ;
#10 = VERTEX_POINT ( 'NONE', #83 ) ;
#11 = EDGE_CURVE ( 'NONE', #10, #14, #156, .T. ) ;
#12 = VERTEX_POINT ( 'NONE', #111 ) ;
#13 = ORIENTED_EDGE ( 'NONE', *, *, #11, .T. ) ;
#14 = VERTEX_POINT ( 'NONE', #110 ) ;
#15 = ADVANCED_BREP_SHAPE_REPRESENTATION ( '3455-E0W', ( #74, #302 ), #261 ) ;
#16 = ORIENTED_EDGE ( 'NONE', *, *, #55, .F. ) ;
#17 = ADVANCED_FACE ( 'NONE', ( #109 ), #113, .T. ) ;
#18 = EDGE_LOOP ( 'NONE', ( #45, #59, #73, #8, #16, #2 ) ) ;
#19 = ORIENTED_EDGE ( 'NONE', *, *, #11, .F. ) ;
#20 = EDGE_CURVE ( 'NONE', #70, #10, #100, .T. ) ;
#21 = ORIENTED_EDGE ( 'NONE', *, *, #58, .F. ) ;
#22 = MECHANICAL_DESIGN_GEOMETRIC_PRESENTATION_REPRESENTATION (  '', ( #24 ), #92 ) ;
#23 = PRESENTATION_LAYER_ASSIGNMENT (  '', '', ( #24 ) ) ;
#24 = STYLED_ITEM ( 'NONE', ( #25 ), #3 ) ;
#25 = PRESENTATION_STYLE_ASSIGNMENT (( #26 ) ) ;
#26 = SURFACE_STYLE_USAGE ( .BOTH. , #27 ) ;
#27 = SURFACE_SIDE_STYLE ('',( #28 ) ) ;
#28 = SURFACE_STYLE_FILL_AREA ( #29 ) ;
#29 = FILL_AREA_STYLE ('',( #30 ) ) ;
#30 = FILL_AREA_STYLE_COLOUR ( '', #31 ) ;
#31 = COLOUR_RGB ( '',0.9568627450980391500, 0.9490196078431372100, 0.9607843137254902200 ) ;
#32 = FACE_OUTER_BOUND ( 'NONE', #50, .T. ) ;
#33 = ORIENTED_EDGE ( 'NONE', *, *, #57, .T. ) ;
#34 = EDGE_LOOP ( 'NONE', ( #47, #48, #6, #7 ) ) ;
#35 = ORIENTED_EDGE ( 'NONE', *, *, #57, .F. ) ;
#36 = EDGE_CURVE ( 'NONE', #62, #5, #202, .T. ) ;
#37 = ADVANCED_FACE ( 'NONE', ( #198 ), #155, .T. ) ;
#38 = VERTEX_POINT ( 'NONE', #154 ) ;
#39 = ORIENTED_EDGE ( 'NONE', *, *, #69, .F. ) ;
#40 = ORIENTED_EDGE ( 'NONE', *, *, #64, .T. ) ;
#41 = CLOSED_SHELL ( 'NONE', ( #76, #78, #37, #51, #17, #3 ) ) ;
#42 = ORIENTED_EDGE ( 'NONE', *, *, #36, .F. ) ;
#43 = ORIENTED_EDGE ( 'NONE', *, *, #44, .T. ) ;
#44 = EDGE_CURVE ( 'NONE', #9, #38, #128, .T. ) ;
#45 = ORIENTED_EDGE ( 'NONE', *, *, #72, .F. ) ;
#46 = VERTEX_POINT ( 'NONE', #123 ) ;
#47 = ORIENTED_EDGE ( 'NONE', *, *, #61, .F. ) ;
#48 = ORIENTED_EDGE ( 'NONE', *, *, #55, .T. ) ;
#49 = ORIENTED_EDGE ( 'NONE', *, *, #61, .T. ) ;
#50 = EDGE_LOOP ( 'NONE', ( #19, #60, #39, #40 ) ) ;
#51 = ADVANCED_FACE ( 'NONE', ( #179 ), #95, .T. ) ;
#52 = EDGE_LOOP ( 'NONE', ( #75, #13, #63, #65 ) ) ;
#53 = EDGE_LOOP ( 'NONE', ( #33, #43, #49, #21 ) ) ;
#54 = ORIENTED_EDGE ( 'NONE', *, *, #4, .F. ) ;
#55 = EDGE_CURVE ( 'NONE', #38, #5, #137, .T. ) ;
#56 = VERTEX_POINT ( 'NONE', #120 ) ;
#57 = EDGE_CURVE ( 'NONE', #46, #9, #119, .T. ) ;
#58 = EDGE_CURVE ( 'NONE', #46, #56, #192, .T. ) ;
#59 = ORIENTED_EDGE ( 'NONE', *, *, #20, .T. ) ;
#60 = ORIENTED_EDGE ( 'NONE', *, *, #20, .F. ) ;
#61 = EDGE_CURVE ( 'NONE', #38, #56, #186, .T. ) ;
#62 = VERTEX_POINT ( 'NONE', #212 ) ;
#63 = ORIENTED_EDGE ( 'NONE', *, *, #64, .F. ) ;
#64 = EDGE_CURVE ( 'NONE', #12, #14, #217, .T. ) ;
#65 = ORIENTED_EDGE ( 'NONE', *, *, #66, .F. ) ;
#66 = EDGE_CURVE ( 'NONE', #62, #12, #266, .T. ) ;
#67 = EDGE_LOOP ( 'NONE', ( #79, #68, #71, #35, #54, #42 ) ) ;
#68 = ORIENTED_EDGE ( 'NONE', *, *, #69, .T. ) ;
#69 = EDGE_CURVE ( 'NONE', #12, #70, #288, .T. ) ;
#70 = VERTEX_POINT ( 'NONE', #241 ) ;
#71 = ORIENTED_EDGE ( 'NONE', *, *, #72, .T. ) ;
#72 = EDGE_CURVE ( 'NONE', #70, #9, #242, .T. ) ;
#73 = ORIENTED_EDGE ( 'NONE', *, *, #77, .T. ) ;
#74 = MANIFOLD_SOLID_BREP ( 'NONE', #41 ) ;
#75 = ORIENTED_EDGE ( 'NONE', *, *, #77, .F. ) ;
#76 = ADVANCED_FACE ( 'NONE', ( #286 ), #238, .F. ) ;
#77 = EDGE_CURVE ( 'NONE', #10, #62, #236, .T. ) ;
#78 = ADVANCED_FACE ( 'NONE', ( #279 ), #208, .T. ) ;
#79 = ORIENTED_EDGE ( 'NONE', *, *, #66, .T. ) ;
#80 = CARTESIAN_POINT ( 'NONE',  ( 0.0000000000000000000, 0.0000000000000000000, -234.9924437645739200 ) ) ;
#81 = AXIS2_PLACEMENT_3D ( 'NONE', #80, #131, #130 ) ;
#82 = CARTESIAN_POINT ( 'NONE',  ( 0.0000000000000000000, 0.0000000000000000000, -234.9924437645739200 ) ) ;
#83 = CARTESIAN_POINT ( 'NONE',  ( -1.555250069354405900E-015, -12.69999999999989100, -1.487556235426044300 ) ) ;
#84 = CARTESIAN_POINT ( 'NONE',  ( -12.70000000000000300, 1.555250069354419500E-015, 0.5144459691694917000 ) ) ;
#85 = MECHANICAL_DESIGN_GEOMETRIC_PRESENTATION_REPRESENTATION (  '', ( #87 ), #114 ) ;
#86 = PRESENTATION_LAYER_ASSIGNMENT (  '', '', ( #87 ) ) ;
#87 = STYLED_ITEM ( 'NONE', ( #88 ), #17 ) ;
#88 = PRESENTATION_STYLE_ASSIGNMENT (( #89 ) ) ;
#89 = SURFACE_STYLE_USAGE ( .BOTH. , #90 ) ;
#90 = SURFACE_SIDE_STYLE ('',( #91 ) ) ;
#91 = SURFACE_STYLE_FILL_AREA ( #106 ) ;
#92 =( GEOMETRIC_REPRESENTATION_CONTEXT ( 3 ) GLOBAL_UNCERTAINTY_ASSIGNED_CONTEXT ( ( #180 ) ) GLOBAL_UNIT_ASSIGNED_CONTEXT ( ( #1, #146, #105 ) ) REPRESENTATION_CONTEXT ( 'NONE', 'WORKASPACE' ) );
#93 = CARTESIAN_POINT ( 'NONE',  ( 0.0000000000000000000, 0.0000000000000000000, -81.87244376457394400 ) ) ;
#94 = AXIS2_PLACEMENT_3D ( 'NONE', #93, #136, #135 ) ;
#95 = SPHERICAL_SURFACE ( 'NONE', #94, 83.35999999999999900 ) ;
#96 =( GEOMETRIC_REPRESENTATION_CONTEXT ( 3 ) GLOBAL_UNCERTAINTY_ASSIGNED_CONTEXT ( ( #143 ) ) GLOBAL_UNIT_ASSIGNED_CONTEXT ( ( #170, #145, #144 ) ) REPRESENTATION_CONTEXT ( 'NONE', 'WORKASPACE' ) );
#97 = DIRECTION ( 'NONE',  ( -0.0000000000000000000, -0.0000000000000000000, 1.000000000000000000 ) ) ;
#98 = CARTESIAN_POINT ( 'NONE',  ( 0.0000000000000000000, 0.0000000000000000000, -1.487556235426047600 ) ) ;
#99 = AXIS2_PLACEMENT_3D ( 'NONE', #98, #97, #204 ) ;
#100 = CIRCLE ( 'NONE', #99, 12.69999999999999900 ) ;
#101 = DIRECTION ( 'NONE',  ( 1.000000000000000000, 0.0000000000000000000, 0.0000000000000000000 ) ) ;
#102 = SPHERICAL_SURFACE ( 'NONE', #81, 233.8499999999999900 ) ;
#103 =( GEOMETRIC_REPRESENTATION_CONTEXT ( 3 ) GLOBAL_UNCERTAINTY_ASSIGNED_CONTEXT ( ( #104 ) ) GLOBAL_UNIT_ASSIGNED_CONTEXT ( ( #140, #139, #138 ) ) REPRESENTATION_CONTEXT ( 'NONE', 'WORKASPACE' ) );
#104 = UNCERTAINTY_MEASURE_WITH_UNIT (LENGTH_MEASURE( 1.000000000000000100E-005 ), #140, 'distance_accuracy_value', 'NONE');
#105 =( NAMED_UNIT ( * ) SI_UNIT ( $, .STERADIAN. ) SOLID_ANGLE_UNIT ( ) );
#106 = FILL_AREA_STYLE ('',( #107 ) ) ;
#107 = FILL_AREA_STYLE_COLOUR ( '', #108 ) ;
#108 = COLOUR_RGB ( '',0.9568627450980391500, 0.9490196078431372100, 0.9607843137254902200 ) ;
#109 = FACE_OUTER_BOUND ( 'NONE', #18, .T. ) ;
#110 = CARTESIAN_POINT ( 'NONE',  ( 0.0000000000000000000, 1.431870979206814700E-014, -1.142443764573924900 ) ) ;
#111 = CARTESIAN_POINT ( 'NONE',  ( 0.0000000000000000000, 12.69999999999989100, -1.487556235426044300 ) ) ;
#112 = CARTESIAN_POINT ( 'NONE',  ( 0.0000000000000000000, 0.0000000000000000000, 9.077659990267106200 ) ) ;
#113 = CYLINDRICAL_SURFACE ( 'NONE', #142, 12.69999999999999900 ) ;
#114 =( GEOMETRIC_REPRESENTATION_CONTEXT ( 3 ) GLOBAL_UNCERTAINTY_ASSIGNED_CONTEXT ( ( #157 ) ) GLOBAL_UNIT_ASSIGNED_CONTEXT ( ( #160, #159, #158 ) ) REPRESENTATION_CONTEXT ( 'NONE', 'WORKASPACE' ) );
#115 = DIRECTION ( 'NONE',  ( 1.000000000000000000, 0.0000000000000000000, 0.0000000000000000000 ) ) ;
#116 = DIRECTION ( 'NONE',  ( -0.0000000000000000000, -0.0000000000000000000, 1.000000000000000000 ) ) ;
#117 = CARTESIAN_POINT ( 'NONE',  ( 0.0000000000000000000, 0.0000000000000000000, 0.5144459691694917000 ) ) ;
#118 = AXIS2_PLACEMENT_3D ( 'NONE', #117, #116, #115 ) ;
#119 = CIRCLE ( 'NONE', #118, 12.70000000000000100 ) ;
#120 = CARTESIAN_POINT ( 'NONE',  ( 0.0000000000000000000, 5.104159282731668900E-015, 1.487556235426054800 ) ) ;
#121 = DIRECTION ( 'NONE',  ( 1.000000000000000000, 0.0000000000000000000, 0.0000000000000000000 ) ) ;
#122 = FILL_AREA_STYLE ('',( #129 ) ) ;
#123 = CARTESIAN_POINT ( 'NONE',  ( 0.0000000000000000000, 12.69999999999999200, 0.5144459691694943700 ) ) ;
#124 = DIRECTION ( 'NONE',  ( 1.000000000000000000, 0.0000000000000000000, 0.0000000000000000000 ) ) ;
#125 = DIRECTION ( 'NONE',  ( -0.0000000000000000000, -0.0000000000000000000, 1.000000000000000000 ) ) ;
#126 = CARTESIAN_POINT ( 'NONE',  ( 0.0000000000000000000, 0.0000000000000000000, 0.5144459691694917000 ) ) ;
#127 = AXIS2_PLACEMENT_3D ( 'NONE', #126, #125, #124 ) ;
#128 = CIRCLE ( 'NONE', #127, 12.70000000000000100 ) ;
#129 = FILL_AREA_STYLE_COLOUR ( '', #178 ) ;
#130 = DIRECTION ( 'NONE',  ( 0.0000000000000000000, 1.000000000000000000, 0.0000000000000000000 ) ) ;
#131 = DIRECTION ( 'NONE',  ( -1.000000000000000000, 0.0000000000000000000, 0.0000000000000000000 ) ) ;
#132 = DIRECTION ( 'NONE',  ( -0.0000000000000000000, -0.0000000000000000000, 1.000000000000000000 ) ) ;
#133 = CARTESIAN_POINT ( 'NONE',  ( 0.0000000000000000000, 0.0000000000000000000, 0.5144459691694917000 ) ) ;
#134 = AXIS2_PLACEMENT_3D ( 'NONE', #133, #132, #121 ) ;
#135 = DIRECTION ( 'NONE',  ( 0.0000000000000000000, 1.000000000000000000, 0.0000000000000000000 ) ) ;
#136 = DIRECTION ( 'NONE',  ( -1.000000000000000000, 0.0000000000000000000, 0.0000000000000000000 ) ) ;
#137 = CIRCLE ( 'NONE', #134, 12.70000000000000100 ) ;
#138 =( NAMED_UNIT ( * ) SI_UNIT ( $, .STERADIAN. ) SOLID_ANGLE_UNIT ( ) );
#139 =( NAMED_UNIT ( * ) PLANE_ANGLE_UNIT ( ) SI_UNIT ( $, .RADIAN. ) );
#140 =( LENGTH_UNIT ( ) NAMED_UNIT ( * ) SI_UNIT ( .MILLI., .METRE. ) );
#141 = DIRECTION ( 'NONE',  ( -0.0000000000000000000, -0.0000000000000000000, 1.000000000000000000 ) ) ;
#142 = AXIS2_PLACEMENT_3D ( 'NONE', #112, #141, #101 ) ;
#143 = UNCERTAINTY_MEASURE_WITH_UNIT (LENGTH_MEASURE( 1.000000000000000100E-005 ), #170, 'distance_accuracy_value', 'NONE');
#144 =( NAMED_UNIT ( * ) SI_UNIT ( $, .STERADIAN. ) SOLID_ANGLE_UNIT ( ) );
#145 =( NAMED_UNIT ( * ) PLANE_ANGLE_UNIT ( ) SI_UNIT ( $, .RADIAN. ) );
#146 =( NAMED_UNIT ( * ) PLANE_ANGLE_UNIT ( ) SI_UNIT ( $, .RADIAN. ) );
#147 = DIRECTION ( 'NONE',  ( -1.224606353822377300E-016, -1.000000000000000000, 0.0000000000000000000 ) ) ;
#148 = DIRECTION ( 'NONE',  ( -1.000000000000000000, 1.224606353822377300E-016, 0.0000000000000000000 ) ) ;
#149 = AXIS2_PLACEMENT_3D ( 'NONE', #82, #148, #147 ) ;
#150 = DIRECTION ( 'NONE',  ( 0.0000000000000000000, 1.000000000000000000, 0.0000000000000000000 ) ) ;
#151 = DIRECTION ( 'NONE',  ( -1.000000000000000000, 0.0000000000000000000, 0.0000000000000000000 ) ) ;
#152 = CARTESIAN_POINT ( 'NONE',  ( 0.0000000000000000000, 0.0000000000000000000, -81.87244376457394400 ) ) ;
#153 = AXIS2_PLACEMENT_3D ( 'NONE', #152, #151, #150 ) ;
#154 = CARTESIAN_POINT ( 'NONE',  ( -1.555250069354418500E-015, -12.69999999999999200, 0.5144459691694943700 ) ) ;
#155 = SPHERICAL_SURFACE ( 'NONE', #153, 83.35999999999999900 ) ;
#156 = CIRCLE ( 'NONE', #149, 233.8499999999999900 ) ;
#157 = UNCERTAINTY_MEASURE_WITH_UNIT (LENGTH_MEASURE( 1.000000000000000100E-005 ), #160, 'distance_accuracy_value', 'NONE');
#158 =( NAMED_UNIT ( * ) SI_UNIT ( $, .STERADIAN. ) SOLID_ANGLE_UNIT ( ) );
#159 =( NAMED_UNIT ( * ) PLANE_ANGLE_UNIT ( ) SI_UNIT ( $, .RADIAN. ) );
#160 =( LENGTH_UNIT ( ) NAMED_UNIT ( * ) SI_UNIT ( .MILLI., .METRE. ) );
#161 = MECHANICAL_DESIGN_GEOMETRIC_PRESENTATION_REPRESENTATION (  '', ( #163 ), #103 ) ;
#162 = PRESENTATION_LAYER_ASSIGNMENT (  '', '', ( #163 ) ) ;
#163 = STYLED_ITEM ( 'NONE', ( #164 ), #37 ) ;
#164 = PRESENTATION_STYLE_ASSIGNMENT (( #165 ) ) ;
#165 = SURFACE_STYLE_USAGE ( .BOTH. , #166 ) ;
#166 = SURFACE_SIDE_STYLE ('',( #167 ) ) ;
#167 = SURFACE_STYLE_FILL_AREA ( #168 ) ;
#168 = FILL_AREA_STYLE ('',( #203 ) ) ;
#169 = COLOUR_RGB ( '',0.9568627450980391500, 0.9490196078431372100, 0.9607843137254902200 ) ;
#170 =( LENGTH_UNIT ( ) NAMED_UNIT ( * ) SI_UNIT ( .MILLI., .METRE. ) );
#171 = MECHANICAL_DESIGN_GEOMETRIC_PRESENTATION_REPRESENTATION (  '', ( #173 ), #96 ) ;
#172 = PRESENTATION_LAYER_ASSIGNMENT (  '', '', ( #173 ) ) ;
#173 = STYLED_ITEM ( 'NONE', ( #174 ), #51 ) ;
#174 = PRESENTATION_STYLE_ASSIGNMENT (( #175 ) ) ;
#175 = SURFACE_STYLE_USAGE ( .BOTH. , #176 ) ;
#176 = SURFACE_SIDE_STYLE ('',( #177 ) ) ;
#177 = SURFACE_STYLE_FILL_AREA ( #122 ) ;
#178 = COLOUR_RGB ( '',0.9568627450980391500, 0.9490196078431372100, 0.9607843137254902200 ) ;
#179 = FACE_OUTER_BOUND ( 'NONE', #34, .T. ) ;
#180 = UNCERTAINTY_MEASURE_WITH_UNIT (LENGTH_MEASURE( 1.000000000000000100E-005 ), #1, 'distance_accuracy_value', 'NONE');
#181 = AXIS2_PLACEMENT_3D ( 'NONE', #197, #196, #195 ) ;
#182 = CIRCLE ( 'NONE', #181, 12.70000000000000100 ) ;
#183 = DIRECTION ( 'NONE',  ( -1.224606353822377500E-016, -1.000000000000000000, 0.0000000000000000000 ) ) ;
#184 = DIRECTION ( 'NONE',  ( -1.000000000000000000, 1.224606353822377300E-016, 0.0000000000000000000 ) ) ;
#185 = AXIS2_PLACEMENT_3D ( 'NONE', #193, #184, #183 ) ;
#186 = CIRCLE ( 'NONE', #185, 83.35999999999999900 ) ;
#187 = COLOUR_RGB ( '',0.7960784313725489700, 0.8235294117647058400, 0.9372549019607843100 ) ;
#188 = DIRECTION ( 'NONE',  ( 0.0000000000000000000, 0.0000000000000000000, -1.000000000000000000 ) ) ;
#189 = DIRECTION ( 'NONE',  ( 1.000000000000000000, 0.0000000000000000000, 0.0000000000000000000 ) ) ;
#190 = CARTESIAN_POINT ( 'NONE',  ( 0.0000000000000000000, 0.0000000000000000000, -81.87244376457394400 ) ) ;
#191 = AXIS2_PLACEMENT_3D ( 'NONE', #190, #189, #188 ) ;
#192 = CIRCLE ( 'NONE', #191, 83.36000000000001400 ) ;
#193 = CARTESIAN_POINT ( 'NONE',  ( 0.0000000000000000000, 0.0000000000000000000, -81.87244376457394400 ) ) ;
#194 = CARTESIAN_POINT ( 'NONE',  ( 12.70000000000000300, 0.0000000000000000000, 0.5144459691694917000 ) ) ;
#195 = DIRECTION ( 'NONE',  ( 1.000000000000000000, 0.0000000000000000000, 0.0000000000000000000 ) ) ;
#196 = DIRECTION ( 'NONE',  ( -0.0000000000000000000, -0.0000000000000000000, 1.000000000000000000 ) ) ;
#197 = CARTESIAN_POINT ( 'NONE',  ( 0.0000000000000000000, 0.0000000000000000000, 0.5144459691694917000 ) ) ;
#198 = FACE_OUTER_BOUND ( 'NONE', #53, .T. ) ;
#199 = DIRECTION ( 'NONE',  ( -0.0000000000000000000, -0.0000000000000000000, 1.000000000000000000 ) ) ;
#200 = VECTOR ( 'NONE', #199, 1000.000000000000000 ) ;
#201 = CARTESIAN_POINT ( 'NONE',  ( 12.69999999999999900, 0.0000000000000000000, 9.077659990267106200 ) ) ;
#202 = LINE ( 'NONE', #201, #200 ) ;
#203 = FILL_AREA_STYLE_COLOUR ( '', #169 ) ;
#204 = DIRECTION ( 'NONE',  ( 1.000000000000000000, 0.0000000000000000000, 0.0000000000000000000 ) ) ;
#205 =( NAMED_UNIT ( * ) PLANE_ANGLE_UNIT ( ) SI_UNIT ( $, .RADIAN. ) );
#206 =( NAMED_UNIT ( * ) PLANE_ANGLE_UNIT ( ) SI_UNIT ( $, .RADIAN. ) );
#207 = CARTESIAN_POINT ( 'NONE',  ( 0.0000000000000000000, 0.0000000000000000000, 9.077659990267106200 ) ) ;
#208 = CYLINDRICAL_SURFACE ( 'NONE', #211, 12.69999999999999900 ) ;
#209 =( GEOMETRIC_REPRESENTATION_CONTEXT ( 3 ) GLOBAL_UNCERTAINTY_ASSIGNED_CONTEXT ( ( #245 ) ) GLOBAL_UNIT_ASSIGNED_CONTEXT ( ( #255, #247, #246 ) ) REPRESENTATION_CONTEXT ( 'NONE', 'WORKASPACE' ) );
#210 = DIRECTION ( 'NONE',  ( -0.0000000000000000000, -0.0000000000000000000, 1.000000000000000000 ) ) ;
#211 = AXIS2_PLACEMENT_3D ( 'NONE', #207, #210, #234 ) ;
#212 = CARTESIAN_POINT ( 'NONE',  ( 12.69999999999999900, 0.0000000000000000000, -1.487556235426047600 ) ) ;
#213 = SURFACE_SIDE_STYLE ('',( #214 ) ) ;
#214 = SURFACE_STYLE_FILL_AREA ( #215 ) ;
#215 = FILL_AREA_STYLE ('',( #216 ) ) ;
#216 = FILL_AREA_STYLE_COLOUR ( '', #285 ) ;
#217 = CIRCLE ( 'NONE', #239, 233.8500000000000200 ) ;
#218 =( LENGTH_UNIT ( ) NAMED_UNIT ( * ) SI_UNIT ( .MILLI., .METRE. ) );
#219 =( NAMED_UNIT ( * ) SI_UNIT ( $, .STERADIAN. ) SOLID_ANGLE_UNIT ( ) );
#220 = DIRECTION ( 'NONE',  ( 0.0000000000000000000, 0.0000000000000000000, -1.000000000000000000 ) ) ;
#221 = MECHANICAL_DESIGN_GEOMETRIC_PRESENTATION_REPRESENTATION (  '', ( #223 ), #287 ) ;
#222 = PRESENTATION_LAYER_ASSIGNMENT (  '', '', ( #223 ) ) ;
#223 = STYLED_ITEM ( 'NONE', ( #224 ), #74 ) ;
#224 = PRESENTATION_STYLE_ASSIGNMENT (( #225 ) ) ;
#225 = SURFACE_STYLE_USAGE ( .BOTH. , #226 ) ;
#226 = SURFACE_SIDE_STYLE ('',( #228 ) ) ;
#227 = UNCERTAINTY_MEASURE_WITH_UNIT (LENGTH_MEASURE( 1.000000000000000100E-005 ), #218, 'distance_accuracy_value', 'NONE');
#228 = SURFACE_STYLE_FILL_AREA ( #229 ) ;
#229 = FILL_AREA_STYLE ('',( #269 ) ) ;
#230 = COLOUR_RGB ( '',0.7960784313725489700, 0.8235294117647058400, 0.9372549019607843100 ) ;
#231 = DIRECTION ( 'NONE',  ( -0.0000000000000000000, -0.0000000000000000000, 1.000000000000000000 ) ) ;
#232 =( NAMED_UNIT ( * ) PLANE_ANGLE_UNIT ( ) SI_UNIT ( $, .RADIAN. ) );
#233 =( LENGTH_UNIT ( ) NAMED_UNIT ( * ) SI_UNIT ( .MILLI., .METRE. ) );
#234 = DIRECTION ( 'NONE',  ( 1.000000000000000000, 0.0000000000000000000, 0.0000000000000000000 ) ) ;
#235 = AXIS2_PLACEMENT_3D ( 'NONE', #248, #281, #280 ) ;
#236 = CIRCLE ( 'NONE', #235, 12.69999999999999900 ) ;
#237 = FILL_AREA_STYLE_COLOUR ( '', #278 ) ;
#238 = SPHERICAL_SURFACE ( 'NONE', #252, 233.8499999999999900 ) ;
#239 = AXIS2_PLACEMENT_3D ( 'NONE', #264, #274, #220 ) ;
#240 = AXIS2_PLACEMENT_3D ( 'NONE', #243, #283, #289 ) ;
#241 = CARTESIAN_POINT ( 'NONE',  ( -12.69999999999999900, 1.555250069354419100E-015, -1.487556235426047600 ) ) ;
#242 = LINE ( 'NONE', #268, #267 ) ;
#243 = CARTESIAN_POINT ( 'NONE',  ( 0.0000000000000000000, 0.0000000000000000000, -1.487556235426047600 ) ) ;
#244 = DIRECTION ( 'NONE',  ( 1.000000000000000000, 0.0000000000000000000, 0.0000000000000000000 ) ) ;
#245 = UNCERTAINTY_MEASURE_WITH_UNIT (LENGTH_MEASURE( 1.000000000000000100E-005 ), #255, 'distance_accuracy_value', 'NONE');
#246 =( NAMED_UNIT ( * ) SI_UNIT ( $, .STERADIAN. ) SOLID_ANGLE_UNIT ( ) );
#247 =( NAMED_UNIT ( * ) PLANE_ANGLE_UNIT ( ) SI_UNIT ( $, .RADIAN. ) );
#248 = CARTESIAN_POINT ( 'NONE',  ( 0.0000000000000000000, 0.0000000000000000000, -1.487556235426047600 ) ) ;
#249 = DIRECTION ( 'NONE',  ( 0.0000000000000000000, 1.000000000000000000, 0.0000000000000000000 ) ) ;
#250 = DIRECTION ( 'NONE',  ( -1.000000000000000000, 0.0000000000000000000, 0.0000000000000000000 ) ) ;
#251 = CARTESIAN_POINT ( 'NONE',  ( 0.0000000000000000000, 0.0000000000000000000, -234.9924437645739200 ) ) ;
#252 = AXIS2_PLACEMENT_3D ( 'NONE', #251, #250, #249 ) ;
#253 =( NAMED_UNIT ( * ) SI_UNIT ( $, .STERADIAN. ) SOLID_ANGLE_UNIT ( ) );
#254 = UNCERTAINTY_MEASURE_WITH_UNIT (LENGTH_MEASURE( 1.000000000000000100E-005 ), #291, 'distance_accuracy_value', 'NONE');
#255 =( LENGTH_UNIT ( ) NAMED_UNIT ( * ) SI_UNIT ( .MILLI., .METRE. ) );
#256 = MECHANICAL_DESIGN_GEOMETRIC_PRESENTATION_REPRESENTATION (  '', ( #258 ), #209 ) ;
#257 = PRESENTATION_LAYER_ASSIGNMENT (  '', '', ( #258 ) ) ;
#258 = STYLED_ITEM ( 'NONE', ( #259 ), #78 ) ;
#259 = PRESENTATION_STYLE_ASSIGNMENT (( #260 ) ) ;
#260 = SURFACE_STYLE_USAGE ( .BOTH. , #275 ) ;
#261 =( GEOMETRIC_REPRESENTATION_CONTEXT ( 3 ) GLOBAL_UNCERTAINTY_ASSIGNED_CONTEXT ( ( #262 ) ) GLOBAL_UNIT_ASSIGNED_CONTEXT ( ( #233, #232, #263 ) ) REPRESENTATION_CONTEXT ( 'NONE', 'WORKASPACE' ) );
#262 = UNCERTAINTY_MEASURE_WITH_UNIT (LENGTH_MEASURE( 1.000000000000000100E-005 ), #233, 'distance_accuracy_value', 'NONE');
#263 =( NAMED_UNIT ( * ) SI_UNIT ( $, .STERADIAN. ) SOLID_ANGLE_UNIT ( ) );
#264 = CARTESIAN_POINT ( 'NONE',  ( 0.0000000000000000000, 0.0000000000000000000, -234.9924437645739200 ) ) ;
#265 = CARTESIAN_POINT ( 'NONE',  ( 0.0000000000000000000, 0.0000000000000000000, -1.487556235426047600 ) ) ;
#266 = CIRCLE ( 'NONE', #240, 12.69999999999999900 ) ;
#267 = VECTOR ( 'NONE', #231, 1000.000000000000000 ) ;
#268 = CARTESIAN_POINT ( 'NONE',  ( -12.69999999999999900, 1.555250069354419100E-015, 9.077659990267106200 ) ) ;
#269 = FILL_AREA_STYLE_COLOUR ( '', #230 ) ;
#270 = PRESENTATION_LAYER_ASSIGNMENT (  '', '', ( #271 ) ) ;
#271 = STYLED_ITEM ( 'NONE', ( #272 ), #76 ) ;
#272 = PRESENTATION_STYLE_ASSIGNMENT (( #273 ) ) ;
#273 = SURFACE_STYLE_USAGE ( .BOTH. , #213 ) ;
#274 = DIRECTION ( 'NONE',  ( 1.000000000000000000, -0.0000000000000000000, 0.0000000000000000000 ) ) ;
#275 = SURFACE_SIDE_STYLE ('',( #276 ) ) ;
#276 = SURFACE_STYLE_FILL_AREA ( #277 ) ;
#277 = FILL_AREA_STYLE ('',( #237 ) ) ;
#278 = COLOUR_RGB ( '',0.9568627450980391500, 0.9490196078431372100, 0.9607843137254902200 ) ;
#279 = FACE_OUTER_BOUND ( 'NONE', #67, .T. ) ;
#280 = DIRECTION ( 'NONE',  ( 1.000000000000000000, 0.0000000000000000000, 0.0000000000000000000 ) ) ;
#281 = DIRECTION ( 'NONE',  ( -0.0000000000000000000, -0.0000000000000000000, 1.000000000000000000 ) ) ;
#282 = DIRECTION ( 'NONE',  ( -0.0000000000000000000, -0.0000000000000000000, 1.000000000000000000 ) ) ;
#283 = DIRECTION ( 'NONE',  ( -0.0000000000000000000, -0.0000000000000000000, 1.000000000000000000 ) ) ;
#284 =( GEOMETRIC_REPRESENTATION_CONTEXT ( 3 ) GLOBAL_UNCERTAINTY_ASSIGNED_CONTEXT ( ( #254 ) ) GLOBAL_UNIT_ASSIGNED_CONTEXT ( ( #291, #206, #219 ) ) REPRESENTATION_CONTEXT ( 'NONE', 'WORKASPACE' ) );
#285 = COLOUR_RGB ( '',0.9568627450980391500, 0.9490196078431372100, 0.9607843137254902200 ) ;
#286 = FACE_OUTER_BOUND ( 'NONE', #52, .T. ) ;
#287 =( GEOMETRIC_REPRESENTATION_CONTEXT ( 3 ) GLOBAL_UNCERTAINTY_ASSIGNED_CONTEXT ( ( #227 ) ) GLOBAL_UNIT_ASSIGNED_CONTEXT ( ( #218, #205, #253 ) ) REPRESENTATION_CONTEXT ( 'NONE', 'WORKASPACE' ) );
#288 = CIRCLE ( 'NONE', #290, 12.69999999999999900 ) ;
#289 = DIRECTION ( 'NONE',  ( 1.000000000000000000, 0.0000000000000000000, 0.0000000000000000000 ) ) ;
#290 = AXIS2_PLACEMENT_3D ( 'NONE', #265, #282, #244 ) ;
#291 =( LENGTH_UNIT ( ) NAMED_UNIT ( * ) SI_UNIT ( .MILLI., .METRE. ) );
#292 = MECHANICAL_DESIGN_GEOMETRIC_PRESENTATION_REPRESENTATION (  '', ( #271 ), #284 ) ;
#293 = STYLED_ITEM ( 'NONE', ( #299 ), #15 ) ;
#294 = PRESENTATION_LAYER_ASSIGNMENT (  '', '', ( #293 ) ) ;
#295 = UNCERTAINTY_MEASURE_WITH_UNIT (LENGTH_MEASURE( 1.000000000000000100E-005 ), #322, 'distance_accuracy_value', 'NONE');
#296 = DIRECTION ( 'NONE',  ( 1.000000000000000000, 0.0000000000000000000, 0.0000000000000000000 ) ) ;
#297 = DIRECTION ( 'NONE',  ( 0.0000000000000000000, 0.0000000000000000000, 1.000000000000000000 ) ) ;
#298 = CARTESIAN_POINT ( 'NONE',  ( 0.0000000000000000000, 0.0000000000000000000, 0.0000000000000000000 ) ) ;
#299 = PRESENTATION_STYLE_ASSIGNMENT (( #309 ) ) ;
#300 = FILL_AREA_STYLE ('',( #312 ) ) ;
#301 = MECHANICAL_DESIGN_GEOMETRIC_PRESENTATION_REPRESENTATION (  '', ( #293 ), #303 ) ;
#302 = AXIS2_PLACEMENT_3D ( 'NONE', #298, #297, #296 ) ;
#303 =( GEOMETRIC_REPRESENTATION_CONTEXT ( 3 ) GLOBAL_UNCERTAINTY_ASSIGNED_CONTEXT ( ( #295 ) ) GLOBAL_UNIT_ASSIGNED_CONTEXT ( ( #322, #311, #307 ) ) REPRESENTATION_CONTEXT ( 'NONE', 'WORKASPACE' ) );
#304 = PRODUCT ( '3455-E0W', '3455-E0W', '', ( #305 ) ) ;
#305 = PRODUCT_CONTEXT ( 'NONE', #316, 'mechanical' ) ;
#306 = APPLICATION_PROTOCOL_DEFINITION ( 'draft international standard', 'automotive_design', 1998, #316 ) ;
#307 =( NAMED_UNIT ( * ) SI_UNIT ( $, .STERADIAN. ) SOLID_ANGLE_UNIT ( ) );
#308 = PRODUCT_DEFINITION_SHAPE ( 'NONE', 'NONE',  #317 ) ;
#309 = SURFACE_STYLE_USAGE ( .BOTH. , #313 ) ;
#310 = SURFACE_STYLE_FILL_AREA ( #300 ) ;
#311 =( NAMED_UNIT ( * ) PLANE_ANGLE_UNIT ( ) SI_UNIT ( $, .RADIAN. ) );
#312 = FILL_AREA_STYLE_COLOUR ( '', #187 ) ;
#313 = SURFACE_SIDE_STYLE ('',( #310 ) ) ;
#314 = PRODUCT_RELATED_PRODUCT_CATEGORY ( 'part', '', ( #304 ) ) ;
#315 = PRODUCT_DEFINITION_FORMATION_WITH_SPECIFIED_SOURCE ( 'ANY', '', #304, .NOT_KNOWN. ) ;
#316 = APPLICATION_CONTEXT ( 'automotive_design' ) ;
#317 = PRODUCT_DEFINITION ( 'UNKNOWN', '', #315, #318 ) ;
#318 = PRODUCT_DEFINITION_CONTEXT ( 'detailed design', #320, 'design' ) ;
#319 = APPLICATION_PROTOCOL_DEFINITION ( 'draft international standard', 'automotive_design', 1998, #320 ) ;
#320 = APPLICATION_CONTEXT ( 'automotive_design' ) ;
#321 = SHAPE_DEFINITION_REPRESENTATION ( #308, #15 ) ;
#322 =( LENGTH_UNIT ( ) NAMED_UNIT ( * ) SI_UNIT ( .MILLI., .METRE. ) );
ENDSEC;
END-ISO-10303-21;
