ISO-10303-21;
HEADER;
FILE_DESCRIPTION (( 'STEP AP203' ),
    '1' );
FILE_NAME ('43368C_36498.step',
    '2017-07-20T12:43:50',
    ( '' ),
    ( '' ),
    'SwSTEP 2.0',
    'SolidWorks 2016',
    '' );
FILE_SCHEMA (( 'CONFIG_CONTROL_DESIGN' ));
ENDSEC;

DATA;
#1 = CARTESIAN_POINT ( 'NONE',  ( 0.0000000000000000000, 0.0000000000000000000, -1.000000000000000000 ) ) ;
#2 = APPROVAL ( #171, 'UNSPECIFIED' ) ;
#3 = APPROVAL_PERSON_ORGANIZATION ( #44, #61, #12 ) ;
#4 = DIRECTION ( 'NONE',  ( -0.0000000000000000000, -0.0000000000000000000, -1.000000000000000000 ) ) ;
#5 = CARTESIAN_POINT ( 'NONE',  ( -10.00000000000000000, 0.0000000000000000000, 1.000000000000000000 ) ) ;
#6 = VERTEX_POINT ( 'NONE', #5 ) ;
#7 = PERSON_AND_ORGANIZATION ( #116, #139 ) ;
#8 = EDGE_CURVE ( 'NONE', #22, #101, #128, .T. ) ;
#9 = COORDINATED_UNIVERSAL_TIME_OFFSET ( 5, 0, .BEHIND. ) ;
#10 = EDGE_LOOP ( 'NONE', ( #26, #62 ) ) ;
#11 = DATE_TIME_ROLE ( 'creation_date' ) ;
#12 = APPROVAL_ROLE ( '' ) ;
#13 = CC_DESIGN_APPROVAL ( #2, ( #169 ) ) ;
#14 = FACE_OUTER_BOUND ( 'NONE', #32, .T. ) ;
#15 = DIRECTION ( 'NONE',  ( -0.0000000000000000000, -0.0000000000000000000, -1.000000000000000000 ) ) ;
#16 = DIRECTION ( 'NONE',  ( -1.000000000000000000, 0.0000000000000000000, 0.0000000000000000000 ) ) ;
#17 = AXIS2_PLACEMENT_3D ( 'NONE', #98, #134, #33 ) ;
#18 = CC_DESIGN_PERSON_AND_ORGANIZATION_ASSIGNMENT ( #94, #143, ( #45 ) ) ;
#19 = CARTESIAN_POINT ( 'NONE',  ( 0.0000000000000000000, 0.0000000000000000000, -1.000000000000000000 ) ) ;
#20 = ADVANCED_FACE ( 'NONE', ( #14 ), #71, .T. ) ;
#21 = ORIENTED_EDGE ( 'NONE', *, *, #173, .F. ) ;
#22 = VERTEX_POINT ( 'NONE', #125 ) ;
#23 = PERSON_AND_ORGANIZATION ( #116, #139 ) ;
#24 = CC_DESIGN_PERSON_AND_ORGANIZATION_ASSIGNMENT ( #168, #76, ( #169 ) ) ;
#25 = SECURITY_CLASSIFICATION_LEVEL ( 'unclassified' ) ;
#26 = ORIENTED_EDGE ( 'NONE', *, *, #8, .F. ) ;
#27 = CLOSED_SHELL ( 'NONE', ( #20, #83, #136, #127 ) ) ;
#28 = COORDINATED_UNIVERSAL_TIME_OFFSET ( 5, 0, .BEHIND. ) ;
#29 = DATE_AND_TIME ( #156, #166 ) ;
#30 = SECURITY_CLASSIFICATION ( '', '', #25 ) ;
#31 = CARTESIAN_POINT ( 'NONE',  ( 0.0000000000000000000, 0.0000000000000000000, 1.000000000000000000 ) ) ;
#32 = EDGE_LOOP ( 'NONE', ( #78, #147, #120, #131 ) ) ;
#33 = DIRECTION ( 'NONE',  ( 1.000000000000000000, 0.0000000000000000000, 0.0000000000000000000 ) ) ;
#34 = CARTESIAN_POINT ( 'NONE',  ( 0.0000000000000000000, 0.0000000000000000000, 1.000000000000000000 ) ) ;
#35 = PLANE ( 'NONE',  #92 ) ;
#36 = CC_DESIGN_DATE_AND_TIME_ASSIGNMENT ( #132, #11, ( #169 ) ) ;
#37 = CARTESIAN_POINT ( 'NONE',  ( 0.0000000000000000000, 0.0000000000000000000, 1.000000000000000000 ) ) ;
#38 = CARTESIAN_POINT ( 'NONE',  ( 0.0000000000000000000, 0.0000000000000000000, 1.000000000000000000 ) ) ;
#39 = CC_DESIGN_PERSON_AND_ORGANIZATION_ASSIGNMENT ( #49, #103, ( #30 ) ) ;
#40 = DATE_AND_TIME ( #82, #111 ) ;
#41 = DIRECTION ( 'NONE',  ( 1.000000000000000000, 0.0000000000000000000, 0.0000000000000000000 ) ) ;
#42 = CALENDAR_DATE ( 2017, 20, 7 ) ;
#43 = APPROVAL_PERSON_ORGANIZATION ( #108, #57, #86 ) ;
#44 = PERSON_AND_ORGANIZATION ( #116, #139 ) ;
#45 = PRODUCT_DEFINITION_FORMATION_WITH_SPECIFIED_SOURCE ( 'ANY', '', #64, .NOT_KNOWN. ) ;
#46 = CARTESIAN_POINT ( 'NONE',  ( -10.00000000000000000, 0.0000000000000000000, 1.000000000000000000 ) ) ;
#47 = AXIS2_PLACEMENT_3D ( 'NONE', #51, #4, #55 ) ;
#48 = CC_DESIGN_DATE_AND_TIME_ASSIGNMENT ( #85, #161, ( #30 ) ) ;
#49 = PERSON_AND_ORGANIZATION ( #116, #139 ) ;
#50 = ORIENTED_EDGE ( 'NONE', *, *, #135, .T. ) ;
#51 = CARTESIAN_POINT ( 'NONE',  ( 0.0000000000000000000, 0.0000000000000000000, 1.000000000000000000 ) ) ;
#52 = CIRCLE ( 'NONE', #107, 10.00000000000000000 ) ;
#53 =( NAMED_UNIT ( * ) SI_UNIT ( $, .STERADIAN. ) SOLID_ANGLE_UNIT ( ) );
#54 = LOCAL_TIME ( 8, 43, 50.00000000000000000, #89 ) ;
#55 = DIRECTION ( 'NONE',  ( -1.000000000000000000, 0.0000000000000000000, 0.0000000000000000000 ) ) ;
#56 = ORIENTED_EDGE ( 'NONE', *, *, #154, .T. ) ;
#57 = APPROVAL ( #170, 'UNSPECIFIED' ) ;
#58 = FACE_OUTER_BOUND ( 'NONE', #10, .T. ) ;
#59 = AXIS2_PLACEMENT_3D ( 'NONE', #31, #67, #16 ) ;
#60 = APPROVAL_PERSON_ORGANIZATION ( #7, #2, #91 ) ;
#61 = APPROVAL ( #172, 'UNSPECIFIED' ) ;
#62 = ORIENTED_EDGE ( 'NONE', *, *, #145, .F. ) ;
#63 = DESIGN_CONTEXT ( 'detailed design', #160, 'design' ) ;
#64 = PRODUCT ( '43368C_36498', '43368C_36498', '', ( #129 ) ) ;
#65 = CARTESIAN_POINT ( 'NONE',  ( 10.00000000000000000, 1.224646799147353300E-015, 1.000000000000000000 ) ) ;
#66 = DIRECTION ( 'NONE',  ( 1.000000000000000000, 0.0000000000000000000, 0.0000000000000000000 ) ) ;
#67 = DIRECTION ( 'NONE',  ( -0.0000000000000000000, -0.0000000000000000000, -1.000000000000000000 ) ) ;
#68 = CARTESIAN_POINT ( 'NONE',  ( 10.00000000000000000, 1.224646799147353300E-015, 1.000000000000000000 ) ) ;
#69 = CC_DESIGN_APPROVAL ( #57, ( #45 ) ) ;
#70 = DIRECTION ( 'NONE',  ( 0.0000000000000000000, 0.0000000000000000000, 1.000000000000000000 ) ) ;
#71 = CYLINDRICAL_SURFACE ( 'NONE', #47, 10.00000000000000000 ) ;
#72 = AXIS2_PLACEMENT_3D ( 'NONE', #1, #148, #133 ) ;
#73 = CC_DESIGN_APPROVAL ( #61, ( #30 ) ) ;
#74 = DIRECTION ( 'NONE',  ( 0.0000000000000000000, 0.0000000000000000000, 1.000000000000000000 ) ) ;
#75 = EDGE_LOOP ( 'NONE', ( #90, #21, #50, #155 ) ) ;
#76 = PERSON_AND_ORGANIZATION_ROLE ( 'creator' ) ;
#77 = CC_DESIGN_PERSON_AND_ORGANIZATION_ASSIGNMENT ( #122, #157, ( #45 ) ) ;
#78 = ORIENTED_EDGE ( 'NONE', *, *, #154, .F. ) ;
#79 = CARTESIAN_POINT ( 'NONE',  ( 10.00000000000000000, 1.224646799147353300E-015, -1.000000000000000000 ) ) ;
#80 = AXIS2_PLACEMENT_3D ( 'NONE', #19, #104, #115 ) ;
#81 = CC_DESIGN_SECURITY_CLASSIFICATION ( #30, ( #45 ) ) ;
#82 = CALENDAR_DATE ( 2017, 20, 7 ) ;
#83 = ADVANCED_FACE ( 'NONE', ( #123 ), #119, .T. ) ;
#84 = CALENDAR_DATE ( 2017, 20, 7 ) ;
#85 = DATE_AND_TIME ( #117, #146 ) ;
#86 = APPROVAL_ROLE ( '' ) ;
#87 = PERSON_AND_ORGANIZATION_ROLE ( 'design_owner' ) ;
#88 = EDGE_LOOP ( 'NONE', ( #159, #56 ) ) ;
#89 = COORDINATED_UNIVERSAL_TIME_OFFSET ( 5, 0, .BEHIND. ) ;
#90 = ORIENTED_EDGE ( 'NONE', *, *, #164, .F. ) ;
#91 = APPROVAL_ROLE ( '' ) ;
#92 = AXIS2_PLACEMENT_3D ( 'NONE', #38, #138, #153 ) ;
#93 = PRODUCT_RELATED_PRODUCT_CATEGORY ( 'detail', '', ( #64 ) ) ;
#94 = PERSON_AND_ORGANIZATION ( #116, #139 ) ;
#95 = VERTEX_POINT ( 'NONE', #65 ) ;
#96 = PLANE ( 'NONE',  #72 ) ;
#97 = LOCAL_TIME ( 8, 43, 50.00000000000000000, #28 ) ;
#98 = CARTESIAN_POINT ( 'NONE',  ( 0.0000000000000000000, 0.0000000000000000000, -1.000000000000000000 ) ) ;
#99 = VECTOR ( 'NONE', #105, 1000.000000000000000 ) ;
#100 = AXIS2_PLACEMENT_3D ( 'NONE', #34, #149, #66 ) ;
#101 = VERTEX_POINT ( 'NONE', #79 ) ;
#102 = APPLICATION_PROTOCOL_DEFINITION ( 'international standard', 'config_control_design', 1994, #160 ) ;
#103 = PERSON_AND_ORGANIZATION_ROLE ( 'classification_officer' ) ;
#104 = DIRECTION ( 'NONE',  ( 0.0000000000000000000, 0.0000000000000000000, 1.000000000000000000 ) ) ;
#105 = DIRECTION ( 'NONE',  ( -0.0000000000000000000, -0.0000000000000000000, -1.000000000000000000 ) ) ;
#106 = CARTESIAN_POINT ( 'NONE',  ( 0.0000000000000000000, 0.0000000000000000000, 0.0000000000000000000 ) ) ;
#107 = AXIS2_PLACEMENT_3D ( 'NONE', #37, #70, #126 ) ;
#108 = PERSON_AND_ORGANIZATION ( #116, #139 ) ;
#109 = LINE ( 'NONE', #68, #118 ) ;
#110 = CIRCLE ( 'NONE', #80, 10.00000000000000000 ) ;
#111 = LOCAL_TIME ( 8, 43, 50.00000000000000000, #141 ) ;
#112 = DATE_AND_TIME ( #84, #54 ) ;
#113 = FACE_OUTER_BOUND ( 'NONE', #88, .T. ) ;
#114 = UNCERTAINTY_MEASURE_WITH_UNIT (LENGTH_MEASURE( 1.000000000000000100E-005 ), #167, 'distance_accuracy_value', 'NONE');
#115 = DIRECTION ( 'NONE',  ( 1.000000000000000000, 0.0000000000000000000, 0.0000000000000000000 ) ) ;
#116 = PERSON ( 'UNSPECIFIED', 'UNSPECIFIED', 'UNSPECIFIED', ('UNSPECIFIED'), ('UNSPECIFIED'), ('UNSPECIFIED') ) ;
#117 = CALENDAR_DATE ( 2017, 20, 7 ) ;
#118 = VECTOR ( 'NONE', #15, 1000.000000000000000 ) ;
#119 = CYLINDRICAL_SURFACE ( 'NONE', #59, 10.00000000000000000 ) ;
#120 = ORIENTED_EDGE ( 'NONE', *, *, #145, .T. ) ;
#121 =( GEOMETRIC_REPRESENTATION_CONTEXT ( 3 ) GLOBAL_UNCERTAINTY_ASSIGNED_CONTEXT ( ( #114 ) ) GLOBAL_UNIT_ASSIGNED_CONTEXT ( ( #167, #137, #53 ) ) REPRESENTATION_CONTEXT ( 'NONE', 'WORKASPACE' ) );
#122 = PERSON_AND_ORGANIZATION ( #116, #139 ) ;
#123 = FACE_OUTER_BOUND ( 'NONE', #75, .T. ) ;
#124 = PRODUCT_DEFINITION_SHAPE ( 'NONE', 'NONE',  #169 ) ;
#125 = CARTESIAN_POINT ( 'NONE',  ( -10.00000000000000000, 0.0000000000000000000, -1.000000000000000000 ) ) ;
#126 = DIRECTION ( 'NONE',  ( 1.000000000000000000, 0.0000000000000000000, 0.0000000000000000000 ) ) ;
#127 = ADVANCED_FACE ( 'NONE', ( #58 ), #96, .F. ) ;
#128 = CIRCLE ( 'NONE', #17, 10.00000000000000000 ) ;
#129 = MECHANICAL_CONTEXT ( 'NONE', #158, 'mechanical' ) ;
#130 = APPROVAL_DATE_TIME ( #112, #2 ) ;
#131 = ORIENTED_EDGE ( 'NONE', *, *, #135, .F. ) ;
#132 = DATE_AND_TIME ( #42, #97 ) ;
#133 = DIRECTION ( 'NONE',  ( 1.000000000000000000, 0.0000000000000000000, -0.0000000000000000000 ) ) ;
#134 = DIRECTION ( 'NONE',  ( 0.0000000000000000000, 0.0000000000000000000, 1.000000000000000000 ) ) ;
#135 = EDGE_CURVE ( 'NONE', #6, #22, #163, .T. ) ;
#136 = ADVANCED_FACE ( 'NONE', ( #113 ), #35, .T. ) ;
#137 =( NAMED_UNIT ( * ) PLANE_ANGLE_UNIT ( ) SI_UNIT ( $, .RADIAN. ) );
#138 = DIRECTION ( 'NONE',  ( 0.0000000000000000000, 0.0000000000000000000, 1.000000000000000000 ) ) ;
#139 = ORGANIZATION ( 'UNSPECIFIED', 'UNSPECIFIED', '' ) ;
#140 = ADVANCED_BREP_SHAPE_REPRESENTATION ( '43368C_36498', ( #165, #151 ), #121 ) ;
#141 = COORDINATED_UNIVERSAL_TIME_OFFSET ( 5, 0, .BEHIND. ) ;
#142 = APPLICATION_PROTOCOL_DEFINITION ( 'international standard', 'config_control_design', 1994, #158 ) ;
#143 = PERSON_AND_ORGANIZATION_ROLE ( 'design_supplier' ) ;
#144 = CIRCLE ( 'NONE', #100, 10.00000000000000000 ) ;
#145 = EDGE_CURVE ( 'NONE', #101, #22, #110, .T. ) ;
#146 = LOCAL_TIME ( 8, 43, 50.00000000000000000, #9 ) ;
#147 = ORIENTED_EDGE ( 'NONE', *, *, #164, .T. ) ;
#148 = DIRECTION ( 'NONE',  ( 0.0000000000000000000, 0.0000000000000000000, 1.000000000000000000 ) ) ;
#149 = DIRECTION ( 'NONE',  ( 0.0000000000000000000, 0.0000000000000000000, 1.000000000000000000 ) ) ;
#150 = APPROVAL_DATE_TIME ( #29, #57 ) ;
#151 = AXIS2_PLACEMENT_3D ( 'NONE', #106, #74, #41 ) ;
#152 = SHAPE_DEFINITION_REPRESENTATION ( #124, #140 ) ;
#153 = DIRECTION ( 'NONE',  ( 1.000000000000000000, 0.0000000000000000000, -0.0000000000000000000 ) ) ;
#154 = EDGE_CURVE ( 'NONE', #95, #6, #144, .T. ) ;
#155 = ORIENTED_EDGE ( 'NONE', *, *, #8, .T. ) ;
#156 = CALENDAR_DATE ( 2017, 20, 7 ) ;
#157 = PERSON_AND_ORGANIZATION_ROLE ( 'creator' ) ;
#158 = APPLICATION_CONTEXT ( 'configuration controlled 3d designs of mechanical parts and assemblies' ) ;
#159 = ORIENTED_EDGE ( 'NONE', *, *, #173, .T. ) ;
#160 = APPLICATION_CONTEXT ( 'configuration controlled 3d designs of mechanical parts and assemblies' ) ;
#161 = DATE_TIME_ROLE ( 'classification_date' ) ;
#162 = CC_DESIGN_PERSON_AND_ORGANIZATION_ASSIGNMENT ( #23, #87, ( #64 ) ) ;
#163 = LINE ( 'NONE', #46, #99 ) ;
#164 = EDGE_CURVE ( 'NONE', #95, #101, #109, .T. ) ;
#165 = MANIFOLD_SOLID_BREP ( 'Boss-Extrude1', #27 ) ;
#166 = LOCAL_TIME ( 8, 43, 50.00000000000000000, #175 ) ;
#167 =( LENGTH_UNIT ( ) NAMED_UNIT ( * ) SI_UNIT ( .MILLI., .METRE. ) );
#168 = PERSON_AND_ORGANIZATION ( #116, #139 ) ;
#169 = PRODUCT_DEFINITION ( 'UNKNOWN', '', #45, #63 ) ;
#170 = APPROVAL_STATUS ( 'not_yet_approved' ) ;
#171 = APPROVAL_STATUS ( 'not_yet_approved' ) ;
#172 = APPROVAL_STATUS ( 'not_yet_approved' ) ;
#173 = EDGE_CURVE ( 'NONE', #6, #95, #52, .T. ) ;
#174 = APPROVAL_DATE_TIME ( #40, #61 ) ;
#175 = COORDINATED_UNIVERSAL_TIME_OFFSET ( 5, 0, .BEHIND. ) ;
ENDSEC;
END-ISO-10303-21;
