ISO-10303-21;
HEADER;
FILE_DESCRIPTION (( 'STEP AP203' ),
    '1' );
FILE_NAME ('Web Model 11544_11544.step',
    '2019-12-17T13:45:01',
    ( '' ),
    ( '' ),
    'SwSTEP 2.0',
    'SolidWorks 2018',
    '' );
FILE_SCHEMA (( 'CONFIG_CONTROL_DESIGN' ));
ENDSEC;

DATA;
#1 = PERSON_AND_ORGANIZATION ( #205, #246 ) ;
#2 = ORIENTED_EDGE ( 'NONE', *, *, #127, .T. ) ;
#3 = ADVANCED_FACE ( 'NONE', ( #297 ), #320, .F. ) ;
#4 = DIRECTION ( 'NONE',  ( -0.5000000000000169864, -0.8660254037844288266, 0.0000000000000000000 ) ) ;
#5 = CIRCLE ( 'NONE', #197, 19.20096189431999889 ) ;
#6 = DESIGN_CONTEXT ( 'detailed design', #23, 'design' ) ;
#7 = CARTESIAN_POINT ( 'NONE',  ( 0.0000000000000000000, 19.99156042361999752, -1.003473679653000161 ) ) ;
#8 = DIRECTION ( 'NONE',  ( -0.5000000000000169864, 0.8660254037844288266, 0.0000000000000000000 ) ) ;
#9 = CARTESIAN_POINT ( 'NONE',  ( -5.501086962822967052, 20.50000000000000000, 0.6705076727927804514 ) ) ;
#10 = COORDINATED_UNIVERSAL_TIME_OFFSET ( 5, 0, .BEHIND. ) ;
#11 = CARTESIAN_POINT ( 'NONE',  ( -9.241342578805999963, 20.50000000000000000, 0.0000000000000000000 ) ) ;
#12 = B_SPLINE_CURVE_WITH_KNOTS ( 'NONE', 3,
 ( #301, #305, #79, #251, #192, #131 ),
 .UNSPECIFIED., .F., .F.,
 ( 4, 1, 1, 4 ),
 ( 0.0000000000000000000, 0.3333333333333000081, 0.6666666666667000474, 1.000000000000000000 ),
 .UNSPECIFIED. ) ;
#13 = CARTESIAN_POINT ( 'NONE',  ( -9.241342578805999963, 0.0000000000000000000, 0.0000000000000000000 ) ) ;
#14 = ORIENTED_EDGE ( 'NONE', *, *, #123, .F. ) ;
#15 = VERTEX_POINT ( 'NONE', #272 ) ;
#16 = CARTESIAN_POINT ( 'NONE',  ( -0.3539999999999999813, 20.45021677324000109, -1.427807384557000070 ) ) ;
#17 = APPROVAL_ROLE ( '' ) ;
#18 = CC_DESIGN_PERSON_AND_ORGANIZATION_ASSIGNMENT ( #19, #174, ( #151 ) ) ;
#19 = PERSON_AND_ORGANIZATION ( #205, #246 ) ;
#20 = PERSON_AND_ORGANIZATION ( #205, #246 ) ;
#21 = APPROVAL_STATUS ( 'not_yet_approved' ) ;
#22 = DIRECTION ( 'NONE',  ( 0.0000000000000000000, 1.000000000000000000, 0.0000000000000000000 ) ) ;
#23 = APPLICATION_CONTEXT ( 'configuration controlled 3d designs of mechanical parts and assemblies' ) ;
#24 = SECURITY_CLASSIFICATION ( '', '', #339 ) ;
#25 = FACE_OUTER_BOUND ( 'NONE', #314, .T. ) ;
#26 = ORIENTED_EDGE ( 'NONE', *, *, #66, .T. ) ;
#27 = CIRCLE ( 'NONE', #260, 20.50000000000000000 ) ;
#28 = CARTESIAN_POINT ( 'NONE',  ( -9.241342578805999963, 0.0000000000000000000, 0.0000000000000000000 ) ) ;
#29 = VERTEX_POINT ( 'NONE', #322 ) ;
#30 = AXIS2_PLACEMENT_3D ( 'NONE', #302, #250, #253 ) ;
#31 = ADVANCED_FACE ( 'NONE', ( #313 ), #169, .T. ) ;
#32 = EDGE_LOOP ( 'NONE', ( #323, #298, #81, #194 ) ) ;
#33 = EDGE_LOOP ( 'NONE', ( #211, #337, #245, #121, #52 ) ) ;
#34 = DATE_AND_TIME ( #203, #275 ) ;
#35 = CARTESIAN_POINT ( 'NONE',  ( 0.0000000000000000000, 20.11440846871000332, -1.127780099930999924 ) ) ;
#36 = DIRECTION ( 'NONE',  ( -1.000000000000000000, 0.0000000000000000000, 0.0000000000000000000 ) ) ;
#37 = DIRECTION ( 'NONE',  ( 0.0000000000000000000, 1.000000000000000000, 0.0000000000000000000 ) ) ;
#38 = CARTESIAN_POINT ( 'NONE',  ( -2.952420296178520420, 20.46986724681671177, -1.146357345400427441 ) ) ;
#39 = CARTESIAN_POINT ( 'NONE',  ( -9.991342578805999963, 19.20096189431999889, 0.0000000000000000000 ) ) ;
#40 = EDGE_CURVE ( 'NONE', #269, #15, #27, .T. ) ;
#41 = ORIENTED_EDGE ( 'NONE', *, *, #54, .F. ) ;
#42 =( NAMED_UNIT ( * ) PLANE_ANGLE_UNIT ( ) SI_UNIT ( $, .RADIAN. ) );
#43 = ORIENTED_EDGE ( 'NONE', *, *, #268, .F. ) ;
#44 = DIRECTION ( 'NONE',  ( -1.000000000000000000, 0.0000000000000000000, 0.0000000000000000000 ) ) ;
#45 = DATE_TIME_ROLE ( 'classification_date' ) ;
#46 = ORIENTED_EDGE ( 'NONE', *, *, #133, .F. ) ;
#47 = PERSON_AND_ORGANIZATION ( #205, #246 ) ;
#48 = VECTOR ( 'NONE', #4, 1000.000000000000114 ) ;
#49 = CC_DESIGN_PERSON_AND_ORGANIZATION_ASSIGNMENT ( #126, #209, ( #24 ) ) ;
#50 = EDGE_CURVE ( 'NONE', #94, #106, #329, .T. ) ;
#51 = ORIENTED_EDGE ( 'NONE', *, *, #96, .F. ) ;
#52 = ORIENTED_EDGE ( 'NONE', *, *, #96, .T. ) ;
#53 = FACE_OUTER_BOUND ( 'NONE', #33, .T. ) ;
#54 = EDGE_CURVE ( 'NONE', #94, #149, #12, .T. ) ;
#55 = CARTESIAN_POINT ( 'NONE',  ( 0.0000000000000000000, 19.00000000000000000, 0.0000000000000000000 ) ) ;
#56 = CC_DESIGN_PERSON_AND_ORGANIZATION_ASSIGNMENT ( #47, #292, ( #263 ) ) ;
#57 = LINE ( 'NONE', #142, #346 ) ;
#58 = DIRECTION ( 'NONE',  ( -0.2636770648473935608, -0.9646110125192762785, 0.0000000000000000000 ) ) ;
#59 = DIRECTION ( 'NONE',  ( 0.0000000000000000000, 1.000000000000000000, 0.0000000000000000000 ) ) ;
#60 = LINE ( 'NONE', #230, #274 ) ;
#61 = DATE_AND_TIME ( #282, #288 ) ;
#62 = CARTESIAN_POINT ( 'NONE',  ( -0.3539999999999999813, 20.45021677324000109, -1.427807384557000070 ) ) ;
#63 = DIRECTION ( 'NONE',  ( 0.0000000000000000000, 1.000000000000000000, 0.0000000000000000000 ) ) ;
#64 = SHAPE_DEFINITION_REPRESENTATION ( #317, #125 ) ;
#65 = PERSON_AND_ORGANIZATION_ROLE ( 'design_owner' ) ;
#66 = EDGE_CURVE ( 'NONE', #94, #233, #325, .T. ) ;
#67 = CIRCLE ( 'NONE', #324, 20.50000000000001066 ) ;
#68 = COORDINATED_UNIVERSAL_TIME_OFFSET ( 5, 0, .BEHIND. ) ;
#69 = APPROVAL_DATE_TIME ( #217, #335 ) ;
#70 = MANIFOLD_SOLID_BREP ( 'Web Model 11544.stp', #170 ) ;
#71 = DIRECTION ( 'NONE',  ( 0.0000000000000000000, 1.000000000000000000, 0.0000000000000000000 ) ) ;
#72 = ADVANCED_FACE ( 'NONE', ( #238 ), #248, .F. ) ;
#73 = LINE ( 'NONE', #157, #48 ) ;
#74 = CARTESIAN_POINT ( 'NONE',  ( -0.3539999999999999813, 20.45021677324000109, 1.427807384557000070 ) ) ;
#75 = CARTESIAN_POINT ( 'NONE',  ( 0.0000000000000000000, 20.11440846871000332, 1.127780099930999924 ) ) ;
#76 = CARTESIAN_POINT ( 'NONE',  ( 0.0000000000000000000, 19.00000000000000000, 0.0000000000000000000 ) ) ;
#77 = DATE_AND_TIME ( #134, #273 ) ;
#78 = DIRECTION ( 'NONE',  ( 0.0000000000000000000, 1.000000000000000000, 0.0000000000000000000 ) ) ;
#79 = CARTESIAN_POINT ( 'NONE',  ( -0.1163142093196000149, 20.22518724317000149, 1.227212659916000037 ) ) ;
#80 = CARTESIAN_POINT ( 'NONE',  ( -0.3539999999999999813, 20.45021677324000109, -1.427807384557000070 ) ) ;
#81 = ORIENTED_EDGE ( 'NONE', *, *, #40, .F. ) ;
#82 = EDGE_LOOP ( 'NONE', ( #345, #14 ) ) ;
#83 = DIRECTION ( 'NONE',  ( 0.0000000000000000000, 0.9975715499142644438, 0.06964914071007746732 ) ) ;
#84 = CARTESIAN_POINT ( 'NONE',  ( 0.0000000000000000000, 20.11440846871000332, -1.127780099930999924 ) ) ;
#85 = DIRECTION ( 'NONE',  ( 0.0000000000000000000, 0.0000000000000000000, 1.000000000000000000 ) ) ;
#86 = ORIENTED_EDGE ( 'NONE', *, *, #236, .F. ) ;
#87 = COORDINATED_UNIVERSAL_TIME_OFFSET ( 5, 0, .BEHIND. ) ;
#88 = APPROVAL_ROLE ( '' ) ;
#89 = APPROVAL_STATUS ( 'not_yet_approved' ) ;
#90 = DIRECTION ( 'NONE',  ( 0.0000000000000000000, -1.000000000000000000, 0.0000000000000000000 ) ) ;
#91 = ORIENTED_EDGE ( 'NONE', *, *, #182, .T. ) ;
#92 =( LENGTH_UNIT ( ) NAMED_UNIT ( * ) SI_UNIT ( .MILLI., .METRE. ) );
#93 = ORIENTED_EDGE ( 'NONE', *, *, #330, .T. ) ;
#94 = VERTEX_POINT ( 'NONE', #75 ) ;
#95 = APPROVAL_PERSON_ORGANIZATION ( #1, #267, #88 ) ;
#96 = EDGE_CURVE ( 'NONE', #149, #29, #231, .T. ) ;
#97 = FACE_OUTER_BOUND ( 'NONE', #299, .T. ) ;
#98 = CARTESIAN_POINT ( 'NONE',  ( 0.0000000000000000000, 20.11440846871000332, 1.127780099930999924 ) ) ;
#99 = DIRECTION ( 'NONE',  ( 0.0000000000000000000, 0.9984318707789229252, 0.05598034845283127864 ) ) ;
#100 = EDGE_CURVE ( 'NONE', #233, #106, #199, .T. ) ;
#101 = CONICAL_SURFACE ( 'NONE', #200, 19.85048094716000122, 1.047197551196400456 ) ;
#102 = DIRECTION ( 'NONE',  ( 0.0000000000000000000, -1.000000000000000000, 0.0000000000000000000 ) ) ;
#103 = CALENDAR_DATE ( 2019, 17, 12 ) ;
#104 = CARTESIAN_POINT ( 'NONE',  ( 0.0000000000000000000, 19.37374715199999997, 0.3782680612052999880 ) ) ;
#105 = DIRECTION ( 'NONE',  ( 1.000000000000000000, 0.0000000000000000000, 0.0000000000000000000 ) ) ;
#106 = VERTEX_POINT ( 'NONE', #55 ) ;
#107 = CARTESIAN_POINT ( 'NONE',  ( -10.49090970775000109, 0.0000000000000000000, 0.0000000000000000000 ) ) ;
#108 = AXIS2_PLACEMENT_3D ( 'NONE', #332, #168, #136 ) ;
#109 = AXIS2_PLACEMENT_3D ( 'NONE', #290, #164, #37 ) ;
#110 = DIRECTION ( 'NONE',  ( -1.000000000000000000, 0.0000000000000000000, 0.0000000000000000000 ) ) ;
#111 = DIRECTION ( 'NONE',  ( 1.000000000000000000, 0.0000000000000000000, 0.0000000000000000000 ) ) ;
#112 = ORIENTED_EDGE ( 'NONE', *, *, #160, .T. ) ;
#113 = LOCAL_TIME ( 8, 45, 1.000000000000000000, #87 ) ;
#114 = PRODUCT ( 'Web Model 11544_11544', 'Web Model 11544_11544', '', ( #343 ) ) ;
#115 = DATE_TIME_ROLE ( 'creation_date' ) ;
#116 = AXIS2_PLACEMENT_3D ( 'NONE', #289, #201, #83 ) ;
#117 = FACE_OUTER_BOUND ( 'NONE', #148, .T. ) ;
#118 = AXIS2_PLACEMENT_3D ( 'NONE', #107, #111, #165 ) ;
#119 = EDGE_CURVE ( 'NONE', #180, #166, #304, .T. ) ;
#120 = ORIENTED_EDGE ( 'NONE', *, *, #204, .F. ) ;
#121 = ORIENTED_EDGE ( 'NONE', *, *, #160, .F. ) ;
#122 = PERSON_AND_ORGANIZATION ( #205, #246 ) ;
#123 = EDGE_CURVE ( 'NONE', #166, #180, #262, .T. ) ;
#124 = AXIS2_PLACEMENT_3D ( 'NONE', #331, #129, #223 ) ;
#125 = ADVANCED_BREP_SHAPE_REPRESENTATION ( 'Web Model 11544_11544', ( #70, #234 ), #319 ) ;
#126 = PERSON_AND_ORGANIZATION ( #205, #246 ) ;
#127 = EDGE_CURVE ( 'NONE', #15, #180, #152, .T. ) ;
#128 = ORIENTED_EDGE ( 'NONE', *, *, #100, .F. ) ;
#129 = DIRECTION ( 'NONE',  ( 0.0000000000000000000, 0.0000000000000000000, 1.000000000000000000 ) ) ;
#130 = ADVANCED_FACE ( 'NONE', ( #117 ), #101, .T. ) ;
#131 = CARTESIAN_POINT ( 'NONE',  ( -0.3539999999999999813, 20.45021677324000109, 1.427807384557000070 ) ) ;
#132 = CARTESIAN_POINT ( 'NONE',  ( -9.991342578805999963, 0.0000000000000000000, 0.0000000000000000000 ) ) ;
#133 = EDGE_CURVE ( 'NONE', #269, #166, #73, .T. ) ;
#134 = CALENDAR_DATE ( 2019, 17, 12 ) ;
#135 = CARTESIAN_POINT ( 'NONE',  ( -0.3539999999999999813, 20.45021677324000109, 1.427807384557000070 ) ) ;
#136 = DIRECTION ( 'NONE',  ( 0.0000000000000000000, -1.000000000000000000, 0.0000000000000000000 ) ) ;
#137 = B_SPLINE_CURVE_WITH_KNOTS ( 'NONE', 3,
 ( #80, #235, #312, #255, #338, #257 ),
 .UNSPECIFIED., .F., .F.,
 ( 4, 1, 1, 4 ),
 ( 0.0000000000000000000, 0.3333333333333000081, 0.6666666666667000474, 1.000000000000000000 ),
 .UNSPECIFIED. ) ;
#138 = CARTESIAN_POINT ( 'NONE',  ( 5.183853242368000380, 68.73055062595999232, 0.0000000000000000000 ) ) ;
#139 = CARTESIAN_POINT ( 'NONE',  ( -8.000000000000000000, 20.50000000000000000, 0.0000000000000000000 ) ) ;
#140 = ORIENTED_EDGE ( 'NONE', *, *, #330, .F. ) ;
#141 = ADVANCED_FACE ( 'NONE', ( #256 ), #219, .F. ) ;
#142 = CARTESIAN_POINT ( 'NONE',  ( -8.000000000000000000, 20.50000000000000000, 0.0000000000000000000 ) ) ;
#143 = PERSON_AND_ORGANIZATION_ROLE ( 'design_supplier' ) ;
#144 = APPROVAL_ROLE ( '' ) ;
#145 = DATE_AND_TIME ( #291, #181 ) ;
#146 = FACE_OUTER_BOUND ( 'NONE', #287, .T. ) ;
#147 = DIRECTION ( 'NONE',  ( 1.000000000000000000, 0.0000000000000000000, 0.0000000000000000000 ) ) ;
#148 = EDGE_LOOP ( 'NONE', ( #321, #2, #140, #46 ) ) ;
#149 = VERTEX_POINT ( 'NONE', #135 ) ;
#150 = DIRECTION ( 'NONE',  ( 0.0000000000000000000, -1.000000000000000000, 0.0000000000000000000 ) ) ;
#151 = PRODUCT_DEFINITION_FORMATION_WITH_SPECIFIED_SOURCE ( 'ANY', '', #114, .NOT_KNOWN. ) ;
#152 = LINE ( 'NONE', #300, #265 ) ;
#153 = CC_DESIGN_DATE_AND_TIME_ASSIGNMENT ( #34, #45, ( #24 ) ) ;
#154 = ORIENTED_EDGE ( 'NONE', *, *, #187, .T. ) ;
#155 = VERTEX_POINT ( 'NONE', #188 ) ;
#156 = EDGE_CURVE ( 'NONE', #190, #155, #67, .T. ) ;
#157 = CARTESIAN_POINT ( 'NONE',  ( -9.241342578805999963, 20.50000000000000000, 0.0000000000000000000 ) ) ;
#158 = ADVANCED_FACE ( 'NONE', ( #25 ), #306, .T. ) ;
#159 = CARTESIAN_POINT ( 'NONE',  ( 0.0000000000000000000, 19.37374715199999997, -0.3782680612052999880 ) ) ;
#160 = EDGE_CURVE ( 'NONE', #149, #155, #293, .T. ) ;
#161 = ORIENTED_EDGE ( 'NONE', *, *, #54, .T. ) ;
#162 = CARTESIAN_POINT ( 'NONE',  ( 0.0000000000000000000, 19.00000000000000000, 0.0000000000000000000 ) ) ;
#163 = DIRECTION ( 'NONE',  ( 1.000000000000000000, 0.0000000000000000000, 0.0000000000000000000 ) ) ;
#164 = DIRECTION ( 'NONE',  ( 1.000000000000000000, 0.0000000000000000000, 0.0000000000000000000 ) ) ;
#165 = DIRECTION ( 'NONE',  ( 0.0000000000000000000, -1.000000000000000000, 0.0000000000000000000 ) ) ;
#166 = VERTEX_POINT ( 'NONE', #39 ) ;
#167 = DIRECTION ( 'NONE',  ( -1.000000000000000000, 0.0000000000000000000, 0.0000000000000000000 ) ) ;
#168 = DIRECTION ( 'NONE',  ( 1.000000000000000000, 0.0000000000000000000, 0.0000000000000000000 ) ) ;
#169 = CONICAL_SURFACE ( 'NONE', #241, 19.85048094716000122, 1.047197551196400456 ) ;
#170 = CLOSED_SHELL ( 'NONE', ( #261, #72, #218, #141, #185, #130, #31, #276, #3, #158 ) ) ;
#171 = FACE_OUTER_BOUND ( 'NONE', #82, .T. ) ;
#172 = APPLICATION_PROTOCOL_DEFINITION ( 'international standard', 'config_control_design', 1994, #243 ) ;
#173 = APPLICATION_PROTOCOL_DEFINITION ( 'international standard', 'config_control_design', 1994, #23 ) ;
#174 = PERSON_AND_ORGANIZATION_ROLE ( 'creator' ) ;
#175 = EDGE_LOOP ( 'NONE', ( #333, #51, #41, #308 ) ) ;
#176 = AXIS2_PLACEMENT_3D ( 'NONE', #179, #213, #150 ) ;
#177 = CARTESIAN_POINT ( 'NONE',  ( -9.616342578805999963, 0.0000000000000000000, 0.0000000000000000000 ) ) ;
#178 = ORIENTED_EDGE ( 'NONE', *, *, #187, .F. ) ;
#179 = CARTESIAN_POINT ( 'NONE',  ( -146.7489999999999952, 0.0000000000000000000, 0.0000000000000000000 ) ) ;
#180 = VERTEX_POINT ( 'NONE', #334 ) ;
#181 = LOCAL_TIME ( 8, 45, 1.000000000000000000, #10 ) ;
#182 = EDGE_CURVE ( 'NONE', #155, #15, #60, .T. ) ;
#183 = AXIS2_PLACEMENT_3D ( 'NONE', #132, #280, #78 ) ;
#184 = EDGE_LOOP ( 'NONE', ( #93, #220 ) ) ;
#185 = ADVANCED_FACE ( 'NONE', ( #97 ), #210, .T. ) ;
#186 = CC_DESIGN_PERSON_AND_ORGANIZATION_ASSIGNMENT ( #207, #143, ( #151 ) ) ;
#187 = EDGE_CURVE ( 'NONE', #190, #233, #137, .T. ) ;
#188 = CARTESIAN_POINT ( 'NONE',  ( -0.3539999999999999813, -20.50000000000000000, 0.0000000000000000000 ) ) ;
#189 = CARTESIAN_POINT ( 'NONE',  ( 0.0000000000000000000, 19.99156042361999752, 1.003473679653000161 ) ) ;
#190 = VERTEX_POINT ( 'NONE', #62 ) ;
#191 = SPHERICAL_SURFACE ( 'NONE', #232, 138.0989999999999895 ) ;
#192 = CARTESIAN_POINT ( 'NONE',  ( -0.3139436415192000118, 20.41240737988000120, 1.394227884283000041 ) ) ;
#193 = CARTESIAN_POINT ( 'NONE',  ( 0.0000000000000000000, 19.12479933036999924, -0.1263123374826999878 ) ) ;
#194 = ORIENTED_EDGE ( 'NONE', *, *, #133, .T. ) ;
#195 = CYLINDRICAL_SURFACE ( 'NONE', #108, 20.50000000000000000 ) ;
#196 = CARTESIAN_POINT ( 'NONE',  ( -0.3539999999999999813, 0.0000000000000000000, 0.0000000000000000000 ) ) ;
#197 = AXIS2_PLACEMENT_3D ( 'NONE', #316, #44, #22 ) ;
#198 = DIRECTION ( 'NONE',  ( -1.000000000000000000, 0.0000000000000000000, 0.0000000000000000000 ) ) ;
#199 = B_SPLINE_CURVE_WITH_KNOTS ( 'NONE', 3,
 ( #35, #7, #328, #159, #193, #76 ),
 .UNSPECIFIED., .F., .F.,
 ( 4, 1, 1, 4 ),
 ( 0.0000000000000000000, 0.3333333333333000081, 0.6666666666667000474, 1.000000000000000000 ),
 .UNSPECIFIED. ) ;
#200 = AXIS2_PLACEMENT_3D ( 'NONE', #226, #163, #102 ) ;
#201 = DIRECTION ( 'NONE',  ( 1.000000000000000000, 0.0000000000000000000, 0.0000000000000000000 ) ) ;
#202 = ORIENTED_EDGE ( 'NONE', *, *, #66, .F. ) ;
#203 = CALENDAR_DATE ( 2019, 17, 12 ) ;
#204 = EDGE_CURVE ( 'NONE', #29, #269, #57, .T. ) ;
#205 = PERSON ( 'UNSPECIFIED', 'UNSPECIFIED', 'UNSPECIFIED', ('UNSPECIFIED'), ('UNSPECIFIED'), ('UNSPECIFIED') ) ;
#206 = AXIS2_PLACEMENT_3D ( 'NONE', #13, #198, #59 ) ;
#207 = PERSON_AND_ORGANIZATION ( #205, #246 ) ;
#208 = PRODUCT_RELATED_PRODUCT_CATEGORY ( 'detail', '', ( #114 ) ) ;
#209 = PERSON_AND_ORGANIZATION_ROLE ( 'classification_officer' ) ;
#210 = CYLINDRICAL_SURFACE ( 'NONE', #118, 20.50000000000000000 ) ;
#211 = ORIENTED_EDGE ( 'NONE', *, *, #204, .T. ) ;
#212 = PERSON_AND_ORGANIZATION ( #205, #246 ) ;
#213 = DIRECTION ( 'NONE',  ( 0.0000000000000000000, 0.0000000000000000000, -1.000000000000000000 ) ) ;
#214 = CC_DESIGN_DATE_AND_TIME_ASSIGNMENT ( #145, #115, ( #263 ) ) ;
#215 = COORDINATED_UNIVERSAL_TIME_OFFSET ( 5, 0, .BEHIND. ) ;
#216 = DIRECTION ( 'NONE',  ( 1.000000000000000000, 0.0000000000000000000, 0.0000000000000000000 ) ) ;
#217 = DATE_AND_TIME ( #103, #113 ) ;
#218 = ADVANCED_FACE ( 'NONE', ( #146 ), #284, .T. ) ;
#219 = CONICAL_SURFACE ( 'NONE', #311, 49.29844879546999437, 0.7766715171373292925 ) ;
#220 = ORIENTED_EDGE ( 'NONE', *, *, #119, .T. ) ;
#221 = CARTESIAN_POINT ( 'NONE',  ( 1.776356839399999922E-14, 0.0000000000000000000, 0.0000000000000000000 ) ) ;
#222 = CARTESIAN_POINT ( 'NONE',  ( 0.0000000000000000000, 19.74521431614999756, 0.7541925117565999592 ) ) ;
#223 = DIRECTION ( 'NONE',  ( 0.9902870941947059524, -0.1390376606226009781, 0.0000000000000000000 ) ) ;
#224 = DIRECTION ( 'NONE',  ( 1.000000000000000000, 0.0000000000000000000, 0.0000000000000000000 ) ) ;
#225 = APPROVAL_DATE_TIME ( #77, #307 ) ;
#226 = CARTESIAN_POINT ( 'NONE',  ( -9.616342578805999963, 0.0000000000000000000, 0.0000000000000000000 ) ) ;
#227 = EDGE_LOOP ( 'NONE', ( #178, #86, #242, #128 ) ) ;
#228 = APPROVAL_PERSON_ORGANIZATION ( #20, #335, #144 ) ;
#229 = CARTESIAN_POINT ( 'NONE',  ( -8.000000000000000000, 20.50000000000000000, 0.0000000000000000000 ) ) ;
#230 = CARTESIAN_POINT ( 'NONE',  ( -0.3539999999999999813, -20.50000000000000000, 0.0000000000000000000 ) ) ;
#231 = B_SPLINE_CURVE_WITH_KNOTS ( 'NONE', 3,
 ( #74, #283, #9, #229 ),
 .UNSPECIFIED., .F., .F.,
 ( 4, 4 ),
 ( 0.0000000000000000000, 1.000000000000000000 ),
 .UNSPECIFIED. ) ;
#232 = AXIS2_PLACEMENT_3D ( 'NONE', #309, #259, #90 ) ;
#233 = VERTEX_POINT ( 'NONE', #84 ) ;
#234 = AXIS2_PLACEMENT_3D ( 'NONE', #264, #340, #147 ) ;
#235 = CARTESIAN_POINT ( 'NONE',  ( -0.3139436415192000118, 20.41240737988000120, -1.394227884283000041 ) ) ;
#236 = EDGE_CURVE ( 'NONE', #29, #190, #254, .T. ) ;
#237 = CARTESIAN_POINT ( 'NONE',  ( -0.1769999999999999907, 0.0000000000000000000, 0.0000000000000000000 ) ) ;
#238 = FACE_OUTER_BOUND ( 'NONE', #175, .T. ) ;
#239 = CIRCLE ( 'NONE', #249, 49.99999999999998579 ) ;
#240 =( NAMED_UNIT ( * ) SI_UNIT ( $, .STERADIAN. ) SOLID_ANGLE_UNIT ( ) );
#241 = AXIS2_PLACEMENT_3D ( 'NONE', #177, #216, #244 ) ;
#242 = ORIENTED_EDGE ( 'NONE', *, *, #258, .T. ) ;
#243 = APPLICATION_CONTEXT ( 'configuration controlled 3d designs of mechanical parts and assemblies' ) ;
#244 = DIRECTION ( 'NONE',  ( 0.0000000000000000000, -1.000000000000000000, 0.0000000000000000000 ) ) ;
#245 = ORIENTED_EDGE ( 'NONE', *, *, #182, .F. ) ;
#246 = ORGANIZATION ( 'UNSPECIFIED', 'UNSPECIFIED', '' ) ;
#247 = CC_DESIGN_PERSON_AND_ORGANIZATION_ASSIGNMENT ( #212, #65, ( #114 ) ) ;
#248 = CONICAL_SURFACE ( 'NONE', #30, 49.29844879546999437, 0.7766715171373292925 ) ;
#249 = AXIS2_PLACEMENT_3D ( 'NONE', #138, #85, #58 ) ;
#250 = DIRECTION ( 'NONE',  ( 0.0000000000000000000, 0.0000000000000000000, -1.000000000000000000 ) ) ;
#251 = CARTESIAN_POINT ( 'NONE',  ( -0.2343147555194000087, 20.33712271468999688, 1.327228386960999984 ) ) ;
#252 = ORIENTED_EDGE ( 'NONE', *, *, #100, .T. ) ;
#253 = DIRECTION ( 'NONE',  ( -1.000000000000000000, 0.0000000000000000000, 0.0000000000000000000 ) ) ;
#254 = B_SPLINE_CURVE_WITH_KNOTS ( 'NONE', 3,
 ( #139, #336, #38, #16 ),
 .UNSPECIFIED., .F., .F.,
 ( 4, 4 ),
 ( 0.0000000000000000000, 1.000000000000000000 ),
 .UNSPECIFIED. ) ;
#255 = CARTESIAN_POINT ( 'NONE',  ( -0.1163142093196000149, 20.22518724317000149, -1.227212659916000037 ) ) ;
#256 = FACE_OUTER_BOUND ( 'NONE', #227, .T. ) ;
#257 = CARTESIAN_POINT ( 'NONE',  ( 0.0000000000000000000, 20.11440846871000332, -1.127780099930999924 ) ) ;
#258 = EDGE_CURVE ( 'NONE', #29, #106, #239, .T. ) ;
#259 = DIRECTION ( 'NONE',  ( 0.0000000000000000000, 0.0000000000000000000, -1.000000000000000000 ) ) ;
#260 = AXIS2_PLACEMENT_3D ( 'NONE', #28, #270, #71 ) ;
#261 = ADVANCED_FACE ( 'NONE', ( #53 ), #195, .T. ) ;
#262 = CIRCLE ( 'NONE', #183, 19.20096189431999889 ) ;
#263 = PRODUCT_DEFINITION ( 'UNKNOWN', '', #151, #6 ) ;
#264 = CARTESIAN_POINT ( 'NONE',  ( 0.0000000000000000000, 0.0000000000000000000, 0.0000000000000000000 ) ) ;
#265 = VECTOR ( 'NONE', #8, 1000.000000000000114 ) ;
#266 = APPROVAL_STATUS ( 'not_yet_approved' ) ;
#267 = APPROVAL ( #21, 'UNSPECIFIED' ) ;
#268 = EDGE_CURVE ( 'NONE', #269, #15, #315, .T. ) ;
#269 = VERTEX_POINT ( 'NONE', #11 ) ;
#270 = DIRECTION ( 'NONE',  ( 1.000000000000000000, 0.0000000000000000000, 0.0000000000000000000 ) ) ;
#271 = CC_DESIGN_SECURITY_CLASSIFICATION ( #24, ( #151 ) ) ;
#272 = CARTESIAN_POINT ( 'NONE',  ( -9.241342578805999963, -20.50000000000000000, 0.0000000000000000000 ) ) ;
#273 = LOCAL_TIME ( 8, 45, 1.000000000000000000, #215 ) ;
#274 = VECTOR ( 'NONE', #285, 1000.000000000000000 ) ;
#275 = LOCAL_TIME ( 8, 45, 1.000000000000000000, #342 ) ;
#276 = ADVANCED_FACE ( 'NONE', ( #171 ), #191, .F. ) ;
#277 = DIRECTION ( 'NONE',  ( 0.0000000000000000000, 0.0000000000000000000, 1.000000000000000000 ) ) ;
#278 = CC_DESIGN_APPROVAL ( #335, ( #263 ) ) ;
#279 = CC_DESIGN_APPROVAL ( #267, ( #151 ) ) ;
#280 = DIRECTION ( 'NONE',  ( 1.000000000000000000, 0.0000000000000000000, 0.0000000000000000000 ) ) ;
#281 = CARTESIAN_POINT ( 'NONE',  ( 5.183853242368000380, 68.73055062595999232, -0.7139036922784001149 ) ) ;
#282 = CALENDAR_DATE ( 2019, 17, 12 ) ;
#283 = CARTESIAN_POINT ( 'NONE',  ( -2.952420296156300417, 20.46986724681631031, 1.146357345406231687 ) ) ;
#284 = PLANE ( 'NONE',  #109 ) ;
#285 = DIRECTION ( 'NONE',  ( -1.000000000000000000, 0.0000000000000000000, 0.0000000000000000000 ) ) ;
#286 = DIRECTION ( 'NONE',  ( 0.0000000000000000000, 0.9975715499142644438, -0.06964914071007746732 ) ) ;
#287 = EDGE_LOOP ( 'NONE', ( #26, #252, #326 ) ) ;
#288 = LOCAL_TIME ( 8, 45, 1.000000000000000000, #68 ) ;
#289 = CARTESIAN_POINT ( 'NONE',  ( -0.3539999999999999813, 0.0000000000000000000, 0.0000000000000000000 ) ) ;
#290 = CARTESIAN_POINT ( 'NONE',  ( 0.0000000000000000000, 0.0000000000000000000, 0.0000000000000000000 ) ) ;
#291 = CALENDAR_DATE ( 2019, 17, 12 ) ;
#292 = PERSON_AND_ORGANIZATION_ROLE ( 'creator' ) ;
#293 = CIRCLE ( 'NONE', #116, 20.50000000000001066 ) ;
#294 = ORIENTED_EDGE ( 'NONE', *, *, #156, .F. ) ;
#295 = CC_DESIGN_APPROVAL ( #307, ( #24 ) ) ;
#296 = APPROVAL_DATE_TIME ( #61, #267 ) ;
#297 = FACE_OUTER_BOUND ( 'NONE', #184, .T. ) ;
#298 = ORIENTED_EDGE ( 'NONE', *, *, #127, .F. ) ;
#299 = EDGE_LOOP ( 'NONE', ( #341, #91, #43, #120, #318 ) ) ;
#300 = CARTESIAN_POINT ( 'NONE',  ( -9.241342578805999963, -20.50000000000000000, 0.0000000000000000000 ) ) ;
#301 = CARTESIAN_POINT ( 'NONE',  ( 0.0000000000000000000, 20.11440846871000332, 1.127780099930999924 ) ) ;
#302 = CARTESIAN_POINT ( 'NONE',  ( 5.183853242368000380, 68.73055062595999232, 0.7139036922784001149 ) ) ;
#303 = CARTESIAN_POINT ( 'NONE',  ( 0.0000000000000000000, 19.12479933036999924, 0.1263123374826999878 ) ) ;
#304 = CIRCLE ( 'NONE', #124, 138.0990000000000180 ) ;
#305 = CARTESIAN_POINT ( 'NONE',  ( -0.03861167053808999688, 20.15122558345000314, 1.160868314737999896 ) ) ;
#306 = CONICAL_SURFACE ( 'NONE', #347, 20.32300000000000040, 0.7853981633972997312 ) ;
#307 = APPROVAL ( #89, 'UNSPECIFIED' ) ;
#308 = ORIENTED_EDGE ( 'NONE', *, *, #50, .T. ) ;
#309 = CARTESIAN_POINT ( 'NONE',  ( -146.7489999999999952, 0.0000000000000000000, 0.0000000000000000000 ) ) ;
#310 = AXIS2_PLACEMENT_3D ( 'NONE', #221, #224, #99 ) ;
#311 = AXIS2_PLACEMENT_3D ( 'NONE', #281, #277, #105 ) ;
#312 = CARTESIAN_POINT ( 'NONE',  ( -0.2343147555194000087, 20.33712271468999688, -1.327228386960999984 ) ) ;
#313 = FACE_OUTER_BOUND ( 'NONE', #32, .T. ) ;
#314 = EDGE_LOOP ( 'NONE', ( #161, #112, #294, #154, #202 ) ) ;
#315 = CIRCLE ( 'NONE', #206, 20.50000000000000000 ) ;
#316 = CARTESIAN_POINT ( 'NONE',  ( -9.991342578805999963, 0.0000000000000000000, 0.0000000000000000000 ) ) ;
#317 = PRODUCT_DEFINITION_SHAPE ( 'NONE', 'NONE',  #263 ) ;
#318 = ORIENTED_EDGE ( 'NONE', *, *, #236, .T. ) ;
#319 =( GEOMETRIC_REPRESENTATION_CONTEXT ( 3 ) GLOBAL_UNCERTAINTY_ASSIGNED_CONTEXT ( ( #344 ) ) GLOBAL_UNIT_ASSIGNED_CONTEXT ( ( #92, #42, #240 ) ) REPRESENTATION_CONTEXT ( 'NONE', 'WORKASPACE' ) );
#320 = SPHERICAL_SURFACE ( 'NONE', #176, 138.0989999999999895 ) ;
#321 = ORIENTED_EDGE ( 'NONE', *, *, #268, .T. ) ;
#322 = CARTESIAN_POINT ( 'NONE',  ( -8.000000000000000000, 20.50000000000000000, 0.0000000000000000000 ) ) ;
#323 = ORIENTED_EDGE ( 'NONE', *, *, #123, .T. ) ;
#324 = AXIS2_PLACEMENT_3D ( 'NONE', #196, #167, #286 ) ;
#325 = CIRCLE ( 'NONE', #310, 20.14600000000000435 ) ;
#326 = ORIENTED_EDGE ( 'NONE', *, *, #50, .F. ) ;
#327 = APPROVAL_PERSON_ORGANIZATION ( #122, #307, #17 ) ;
#328 = CARTESIAN_POINT ( 'NONE',  ( 0.0000000000000000000, 19.74521431614999756, -0.7541925117565999592 ) ) ;
#329 = B_SPLINE_CURVE_WITH_KNOTS ( 'NONE', 3,
 ( #98, #189, #222, #104, #303, #162 ),
 .UNSPECIFIED., .F., .F.,
 ( 4, 1, 1, 4 ),
 ( 0.0000000000000000000, 0.3333333333333000081, 0.6666666666667000474, 1.000000000000000000 ),
 .UNSPECIFIED. ) ;
#330 = EDGE_CURVE ( 'NONE', #166, #180, #5, .T. ) ;
#331 = CARTESIAN_POINT ( 'NONE',  ( -146.7489999999999952, 0.0000000000000000000, 0.0000000000000000000 ) ) ;
#332 = CARTESIAN_POINT ( 'NONE',  ( -10.49090970775000109, 0.0000000000000000000, 0.0000000000000000000 ) ) ;
#333 = ORIENTED_EDGE ( 'NONE', *, *, #258, .F. ) ;
#334 = CARTESIAN_POINT ( 'NONE',  ( -9.991342578805999963, -19.20096189431999889, 0.0000000000000000000 ) ) ;
#335 = APPROVAL ( #266, 'UNSPECIFIED' ) ;
#336 = CARTESIAN_POINT ( 'NONE',  ( -5.501086962845186612, 20.50000000000000000, -0.6705076727869588860 ) ) ;
#337 = ORIENTED_EDGE ( 'NONE', *, *, #40, .T. ) ;
#338 = CARTESIAN_POINT ( 'NONE',  ( -0.03861167053808999688, 20.15122558345000314, -1.160868314737999896 ) ) ;
#339 = SECURITY_CLASSIFICATION_LEVEL ( 'unclassified' ) ;
#340 = DIRECTION ( 'NONE',  ( 0.0000000000000000000, 0.0000000000000000000, 1.000000000000000000 ) ) ;
#341 = ORIENTED_EDGE ( 'NONE', *, *, #156, .T. ) ;
#342 = COORDINATED_UNIVERSAL_TIME_OFFSET ( 5, 0, .BEHIND. ) ;
#343 = MECHANICAL_CONTEXT ( 'NONE', #243, 'mechanical' ) ;
#344 = UNCERTAINTY_MEASURE_WITH_UNIT (LENGTH_MEASURE( 1.000000000000000082E-05 ), #92, 'distance_accuracy_value', 'NONE');
#345 = ORIENTED_EDGE ( 'NONE', *, *, #119, .F. ) ;
#346 = VECTOR ( 'NONE', #110, 1000.000000000000000 ) ;
#347 = AXIS2_PLACEMENT_3D ( 'NONE', #237, #36, #63 ) ;
ENDSEC;
END-ISO-10303-21;
