ISO-10303-21;
HEADER;
FILE_DESCRIPTION (( 'STEP AP203' ),
    '1' );
FILE_NAME ('Web Model 19629_21353.step',
    '2022-03-25T17:32:23',
    ( '' ),
    ( '' ),
    'SwSTEP 2.0',
    'SolidWorks 2021',
    '' );
FILE_SCHEMA (( 'CONFIG_CONTROL_DESIGN' ));
ENDSEC;

DATA;
#1 = EDGE_CURVE ( 'NONE', #52, #111, #64, .T. ) ;
#2 = DIRECTION ( 'NONE',  ( -0.000000000000000000, 0.000000000000000000, 1.000000000000000000 ) ) ;
#3 = CARTESIAN_POINT ( 'NONE',  ( 0.000000000000000000, 0.000000000000000000, 1.520000000000000018 ) ) ;
#4 = EDGE_CURVE ( 'NONE', #214, #113, #223, .T. ) ;
#5 = VERTEX_POINT ( 'NONE', #198 ) ;
#6 = VERTEX_POINT ( 'NONE', #126 ) ;
#7 = UNCERTAINTY_MEASURE_WITH_UNIT (LENGTH_MEASURE( 1.000000000000000082E-05 ), #9, 'distance_accuracy_value', 'NONE');
#8 = CARTESIAN_POINT ( 'NONE',  ( 0.000000000000000000, 0.000000000000000000, 0.000000000000000000 ) ) ;
#9 =( LENGTH_UNIT ( ) NAMED_UNIT ( * ) SI_UNIT ( .MILLI., .METRE. ) );
#10 = AXIS2_PLACEMENT_3D ( 'NONE', #181, #127, #202 ) ;
#11 = APPROVAL_PERSON_ORGANIZATION ( #72, #119, #155 ) ;
#12 = DIRECTION ( 'NONE',  ( 0.000000000000000000, -1.000000000000000000, 0.000000000000000000 ) ) ;
#13 = ADVANCED_FACE ( 'NONE', ( #222 ), #179, .F. ) ;
#14 = COORDINATED_UNIVERSAL_TIME_OFFSET ( 5, 0, .BEHIND. ) ;
#15 = PERSON_AND_ORGANIZATION ( #176, #183 ) ;
#16 = CC_DESIGN_APPROVAL ( #205, ( #97 ) ) ;
#17 = ORIENTED_EDGE ( 'NONE', *, *, #75, .F. ) ;
#18 = DATE_AND_TIME ( #73, #219 ) ;
#19 = APPROVAL_STATUS ( 'not_yet_approved' ) ;
#20 = VECTOR ( 'NONE', #29, 1000.000000000000000 ) ;
#21 = CARTESIAN_POINT ( 'NONE',  ( 25.39999999999999147, 25.39999999999999147, 1.520000000000000018 ) ) ;
#22 = CARTESIAN_POINT ( 'NONE',  ( -25.40000000000000568, -25.40000000000001990, 1.520000000000000018 ) ) ;
#23 = EDGE_CURVE ( 'NONE', #69, #111, #129, .T. ) ;
#24 = CARTESIAN_POINT ( 'NONE',  ( -25.40000000000000568, -25.40000000000001990, 0.000000000000000000 ) ) ;
#25 = ORIENTED_EDGE ( 'NONE', *, *, #95, .F. ) ;
#26 = DIRECTION ( 'NONE',  ( -0.000000000000000000, 1.000000000000000000, -0.000000000000000000 ) ) ;
#27 = ORIENTED_EDGE ( 'NONE', *, *, #38, .T. ) ;
#28 = EDGE_CURVE ( 'NONE', #113, #52, #158, .T. ) ;
#29 = DIRECTION ( 'NONE',  ( -0.000000000000000000, -0.000000000000000000, -1.000000000000000000 ) ) ;
#30 = APPROVAL_ROLE ( '' ) ;
#31 = DIRECTION ( 'NONE',  ( 1.000000000000000000, 0.000000000000000000, 0.000000000000000000 ) ) ;
#32 = VECTOR ( 'NONE', #229, 1000.000000000000000 ) ;
#33 = DIRECTION ( 'NONE',  ( 0.000000000000000000, 0.000000000000000000, 1.000000000000000000 ) ) ;
#34 = DIRECTION ( 'NONE',  ( 1.000000000000000000, 0.000000000000000000, 0.000000000000000000 ) ) ;
#35 = ORIENTED_EDGE ( 'NONE', *, *, #95, .T. ) ;
#36 = COORDINATED_UNIVERSAL_TIME_OFFSET ( 5, 0, .BEHIND. ) ;
#37 = COORDINATED_UNIVERSAL_TIME_OFFSET ( 5, 0, .BEHIND. ) ;
#38 = EDGE_CURVE ( 'NONE', #111, #6, #98, .T. ) ;
#39 = FACE_OUTER_BOUND ( 'NONE', #41, .T. ) ;
#40 = ADVANCED_FACE ( 'NONE', ( #78 ), #206, .F. ) ;
#41 = EDGE_LOOP ( 'NONE', ( #137, #94, #17, #54 ) ) ;
#42 = DIRECTION ( 'NONE',  ( 0.000000000000000000, 0.000000000000000000, 1.000000000000000000 ) ) ;
#43 = DIRECTION ( 'NONE',  ( -1.000000000000000000, -0.000000000000000000, -0.000000000000000000 ) ) ;
#44 = PLANE ( 'NONE',  #71 ) ;
#45 = LINE ( 'NONE', #84, #63 ) ;
#46 = EDGE_LOOP ( 'NONE', ( #27, #96, #178, #118 ) ) ;
#47 = DIRECTION ( 'NONE',  ( -1.000000000000000000, -0.000000000000000000, -0.000000000000000000 ) ) ;
#48 = DIRECTION ( 'NONE',  ( 1.000000000000000000, 0.000000000000000000, -0.000000000000000000 ) ) ;
#49 = EDGE_CURVE ( 'NONE', #5, #214, #159, .T. ) ;
#50 = APPLICATION_CONTEXT ( 'configuration controlled 3d designs of mechanical parts and assemblies' ) ;
#51 = AXIS2_PLACEMENT_3D ( 'NONE', #21, #144, #42 ) ;
#52 = VERTEX_POINT ( 'NONE', #200 ) ;
#53 = APPLICATION_PROTOCOL_DEFINITION ( 'international standard', 'config_control_design', 1994, #116 ) ;
#54 = ORIENTED_EDGE ( 'NONE', *, *, #28, .T. ) ;
#55 = APPROVAL ( #162, 'UNSPECIFIED' ) ;
#56 = VECTOR ( 'NONE', #175, 1000.000000000000000 ) ;
#57 = CC_DESIGN_PERSON_AND_ORGANIZATION_ASSIGNMENT ( #123, #107, ( #197 ) ) ;
#58 = CLOSED_SHELL ( 'NONE', ( #91, #40, #213, #13, #66, #173 ) ) ;
#59 = LOCAL_TIME ( 13, 32, 23.00000000000000000, #36 ) ;
#60 = CARTESIAN_POINT ( 'NONE',  ( -25.40000000000000568, 25.39999999999999147, 1.520000000000000018 ) ) ;
#61 = DIRECTION ( 'NONE',  ( -0.000000000000000000, -0.000000000000000000, -1.000000000000000000 ) ) ;
#62 = DIRECTION ( 'NONE',  ( 0.000000000000000000, -0.000000000000000000, 1.000000000000000000 ) ) ;
#63 = VECTOR ( 'NONE', #12, 1000.000000000000000 ) ;
#64 = LINE ( 'NONE', #145, #149 ) ;
#65 = DIRECTION ( 'NONE',  ( 0.000000000000000000, 1.000000000000000000, 0.000000000000000000 ) ) ;
#66 = ADVANCED_FACE ( 'NONE', ( #146 ), #44, .T. ) ;
#67 = CARTESIAN_POINT ( 'NONE',  ( -25.40000000000000568, 25.39999999999999147, 1.520000000000000018 ) ) ;
#68 = CARTESIAN_POINT ( 'NONE',  ( -25.40000000000000568, 25.39999999999999147, 1.520000000000000018 ) ) ;
#69 = VERTEX_POINT ( 'NONE', #161 ) ;
#70 = PERSON_AND_ORGANIZATION ( #176, #183 ) ;
#71 = AXIS2_PLACEMENT_3D ( 'NONE', #3, #2, #115 ) ;
#72 = PERSON_AND_ORGANIZATION ( #176, #183 ) ;
#73 = CALENDAR_DATE ( 2022, 25, 3 ) ;
#74 = CARTESIAN_POINT ( 'NONE',  ( 25.39999999999999147, 25.39999999999999147, 1.520000000000000018 ) ) ;
#75 = EDGE_CURVE ( 'NONE', #113, #69, #182, .T. ) ;
#76 = PLANE ( 'NONE',  #51 ) ;
#77 = ORIENTED_EDGE ( 'NONE', *, *, #49, .T. ) ;
#78 = FACE_OUTER_BOUND ( 'NONE', #46, .T. ) ;
#79 = ORIENTED_EDGE ( 'NONE', *, *, #38, .F. ) ;
#80 = CALENDAR_DATE ( 2022, 25, 3 ) ;
#81 = VECTOR ( 'NONE', #61, 1000.000000000000000 ) ;
#82 = CARTESIAN_POINT ( 'NONE',  ( 25.39999999999999147, -25.40000000000001990, 1.520000000000000018 ) ) ;
#83 = AXIS2_PLACEMENT_3D ( 'NONE', #8, #33, #34 ) ;
#84 = CARTESIAN_POINT ( 'NONE',  ( -25.40000000000000568, 25.39999999999999147, 0.000000000000000000 ) ) ;
#85 = DATE_AND_TIME ( #80, #109 ) ;
#86 = PERSON_AND_ORGANIZATION_ROLE ( 'design_owner' ) ;
#87 = CC_DESIGN_PERSON_AND_ORGANIZATION_ASSIGNMENT ( #70, #124, ( #97 ) ) ;
#88 = AXIS2_PLACEMENT_3D ( 'NONE', #22, #65, #62 ) ;
#89 = ORIENTED_EDGE ( 'NONE', *, *, #191, .T. ) ;
#90 = DATE_AND_TIME ( #218, #164 ) ;
#91 = ADVANCED_FACE ( 'NONE', ( #39 ), #76, .F. ) ;
#92 = LINE ( 'NONE', #143, #201 ) ;
#93 = VERTEX_POINT ( 'NONE', #24 ) ;
#94 = ORIENTED_EDGE ( 'NONE', *, *, #23, .F. ) ;
#95 = EDGE_CURVE ( 'NONE', #93, #52, #92, .T. ) ;
#96 = ORIENTED_EDGE ( 'NONE', *, *, #132, .F. ) ;
#97 = SECURITY_CLASSIFICATION ( '', '', #217 ) ;
#98 = LINE ( 'NONE', #147, #215 ) ;
#99 = ORIENTED_EDGE ( 'NONE', *, *, #191, .F. ) ;
#100 = PLANE ( 'NONE',  #101 ) ;
#101 = AXIS2_PLACEMENT_3D ( 'NONE', #165, #48, #152 ) ;
#102 = DIRECTION ( 'NONE',  ( -0.000000000000000000, 0.000000000000000000, 1.000000000000000000 ) ) ;
#103 = LINE ( 'NONE', #67, #20 ) ;
#104 = PRODUCT ( 'Web Model 19629_21353', 'Web Model 19629_21353', '', ( #166 ) ) ;
#105 = EDGE_LOOP ( 'NONE', ( #89, #120, #212, #167 ) ) ;
#106 = DATE_TIME_ROLE ( 'classification_date' ) ;
#107 = PERSON_AND_ORGANIZATION_ROLE ( 'design_supplier' ) ;
#108 = DATE_AND_TIME ( #170, #136 ) ;
#109 = LOCAL_TIME ( 13, 32, 23.00000000000000000, #14 ) ;
#110 = CARTESIAN_POINT ( 'NONE',  ( 25.39999999999999147, 25.39999999999999147, 1.520000000000000018 ) ) ;
#111 = VERTEX_POINT ( 'NONE', #185 ) ;
#112 = VECTOR ( 'NONE', #160, 1000.000000000000000 ) ;
#113 = VERTEX_POINT ( 'NONE', #82 ) ;
#114 = EDGE_LOOP ( 'NONE', ( #151, #25, #99, #79 ) ) ;
#115 = DIRECTION ( 'NONE',  ( 1.000000000000000000, 0.000000000000000000, 0.000000000000000000 ) ) ;
#116 = APPLICATION_CONTEXT ( 'configuration controlled 3d designs of mechanical parts and assemblies' ) ;
#117 = APPROVAL_PERSON_ORGANIZATION ( #15, #55, #30 ) ;
#118 = ORIENTED_EDGE ( 'NONE', *, *, #23, .T. ) ;
#119 = APPROVAL ( #235, 'UNSPECIFIED' ) ;
#120 = ORIENTED_EDGE ( 'NONE', *, *, #220, .F. ) ;
#121 = PERSON_AND_ORGANIZATION_ROLE ( 'creator' ) ;
#122 = PERSON_AND_ORGANIZATION ( #176, #183 ) ;
#123 = PERSON_AND_ORGANIZATION ( #176, #183 ) ;
#124 = PERSON_AND_ORGANIZATION_ROLE ( 'classification_officer' ) ;
#125 = CARTESIAN_POINT ( 'NONE',  ( -25.40000000000000568, -25.40000000000001990, 1.520000000000000018 ) ) ;
#126 = CARTESIAN_POINT ( 'NONE',  ( -25.40000000000000568, 25.39999999999999147, 0.000000000000000000 ) ) ;
#127 = DIRECTION ( 'NONE',  ( 0.000000000000000000, -1.000000000000000000, 0.000000000000000000 ) ) ;
#128 = VECTOR ( 'NONE', #130, 1000.000000000000000 ) ;
#129 = LINE ( 'NONE', #110, #81 ) ;
#130 = DIRECTION ( 'NONE',  ( -0.000000000000000000, -0.000000000000000000, -1.000000000000000000 ) ) ;
#131 = PERSON_AND_ORGANIZATION ( #176, #183 ) ;
#132 = EDGE_CURVE ( 'NONE', #5, #6, #103, .T. ) ;
#133 = PLANE ( 'NONE',  #236 ) ;
#134 =( NAMED_UNIT ( * ) PLANE_ANGLE_UNIT ( ) SI_UNIT ( $, .RADIAN. ) );
#135 = ORIENTED_EDGE ( 'NONE', *, *, #231, .T. ) ;
#136 = LOCAL_TIME ( 13, 32, 23.00000000000000000, #37 ) ;
#137 = ORIENTED_EDGE ( 'NONE', *, *, #1, .T. ) ;
#138 = ADVANCED_BREP_SHAPE_REPRESENTATION ( 'Web Model 19629_21353', ( #180, #83 ), #208 ) ;
#139 = CALENDAR_DATE ( 2022, 25, 3 ) ;
#140 = PRODUCT_RELATED_PRODUCT_CATEGORY ( 'detail', '', ( #104 ) ) ;
#141 = VECTOR ( 'NONE', #26, 1000.000000000000000 ) ;
#142 = COORDINATED_UNIVERSAL_TIME_OFFSET ( 5, 0, .BEHIND. ) ;
#143 = CARTESIAN_POINT ( 'NONE',  ( -25.40000000000000568, -25.40000000000001990, 0.000000000000000000 ) ) ;
#144 = DIRECTION ( 'NONE',  ( -1.000000000000000000, 0.000000000000000000, 0.000000000000000000 ) ) ;
#145 = CARTESIAN_POINT ( 'NONE',  ( 25.39999999999999147, 25.39999999999999147, 0.000000000000000000 ) ) ;
#146 = FACE_OUTER_BOUND ( 'NONE', #154, .T. ) ;
#147 = CARTESIAN_POINT ( 'NONE',  ( -25.40000000000000568, 25.39999999999999147, 0.000000000000000000 ) ) ;
#148 = CARTESIAN_POINT ( 'NONE',  ( -25.40000000000000568, -25.40000000000001990, 1.520000000000000018 ) ) ;
#149 = VECTOR ( 'NONE', #157, 1000.000000000000000 ) ;
#150 = CC_DESIGN_APPROVAL ( #55, ( #227 ) ) ;
#151 = ORIENTED_EDGE ( 'NONE', *, *, #1, .F. ) ;
#152 = DIRECTION ( 'NONE',  ( -0.000000000000000000, 0.000000000000000000, -1.000000000000000000 ) ) ;
#153 = PERSON_AND_ORGANIZATION_ROLE ( 'creator' ) ;
#154 = EDGE_LOOP ( 'NONE', ( #169, #135, #77, #224 ) ) ;
#155 = APPROVAL_ROLE ( '' ) ;
#156 = DATE_TIME_ROLE ( 'creation_date' ) ;
#157 = DIRECTION ( 'NONE',  ( -0.000000000000000000, 1.000000000000000000, -0.000000000000000000 ) ) ;
#158 = LINE ( 'NONE', #204, #128 ) ;
#159 = LINE ( 'NONE', #60, #112 ) ;
#160 = DIRECTION ( 'NONE',  ( 0.000000000000000000, -1.000000000000000000, 0.000000000000000000 ) ) ;
#161 = CARTESIAN_POINT ( 'NONE',  ( 25.39999999999999147, 25.39999999999999147, 1.520000000000000018 ) ) ;
#162 = APPROVAL_STATUS ( 'not_yet_approved' ) ;
#163 = LINE ( 'NONE', #68, #188 ) ;
#164 = LOCAL_TIME ( 13, 32, 23.00000000000000000, #237 ) ;
#165 = CARTESIAN_POINT ( 'NONE',  ( -25.40000000000000568, 25.39999999999999147, 1.520000000000000018 ) ) ;
#166 = MECHANICAL_CONTEXT ( 'NONE', #116, 'mechanical' ) ;
#167 = ORIENTED_EDGE ( 'NONE', *, *, #132, .T. ) ;
#168 = FACE_OUTER_BOUND ( 'NONE', #105, .T. ) ;
#169 = ORIENTED_EDGE ( 'NONE', *, *, #75, .T. ) ;
#170 = CALENDAR_DATE ( 2022, 25, 3 ) ;
#171 = CC_DESIGN_DATE_AND_TIME_ASSIGNMENT ( #174, #106, ( #97 ) ) ;
#172 = APPROVAL_DATE_TIME ( #18, #205 ) ;
#173 = ADVANCED_FACE ( 'NONE', ( #225 ), #133, .F. ) ;
#174 = DATE_AND_TIME ( #139, #59 ) ;
#175 = DIRECTION ( 'NONE',  ( 1.000000000000000000, 0.000000000000000000, 0.000000000000000000 ) ) ;
#176 = PERSON ( 'UNSPECIFIED', 'UNSPECIFIED', 'UNSPECIFIED', ('UNSPECIFIED'), ('UNSPECIFIED'), ('UNSPECIFIED') ) ;
#177 = CC_DESIGN_PERSON_AND_ORGANIZATION_ASSIGNMENT ( #187, #153, ( #227 ) ) ;
#178 = ORIENTED_EDGE ( 'NONE', *, *, #231, .F. ) ;
#179 = PLANE ( 'NONE',  #88 ) ;
#180 = MANIFOLD_SOLID_BREP ( 'Boss-Extrude1', #58 ) ;
#181 = CARTESIAN_POINT ( 'NONE',  ( -25.40000000000000568, 25.39999999999999147, 1.520000000000000018 ) ) ;
#182 = LINE ( 'NONE', #74, #141 ) ;
#183 = ORGANIZATION ( 'UNSPECIFIED', 'UNSPECIFIED', '' ) ;
#184 = EDGE_LOOP ( 'NONE', ( #35, #230, #192, #221 ) ) ;
#185 = CARTESIAN_POINT ( 'NONE',  ( 25.39999999999999147, 25.39999999999999147, 0.000000000000000000 ) ) ;
#186 = APPLICATION_PROTOCOL_DEFINITION ( 'international standard', 'config_control_design', 1994, #50 ) ;
#187 = PERSON_AND_ORGANIZATION ( #176, #183 ) ;
#188 = VECTOR ( 'NONE', #47, 1000.000000000000000 ) ;
#189 = DIRECTION ( 'NONE',  ( 1.000000000000000000, 0.000000000000000000, 0.000000000000000000 ) ) ;
#190 = PRODUCT_DEFINITION_SHAPE ( 'NONE', 'NONE',  #227 ) ;
#191 = EDGE_CURVE ( 'NONE', #6, #93, #45, .T. ) ;
#192 = ORIENTED_EDGE ( 'NONE', *, *, #4, .F. ) ;
#193 = SHAPE_DEFINITION_REPRESENTATION ( #190, #138 ) ;
#194 = APPROVAL_DATE_TIME ( #108, #119 ) ;
#195 = CC_DESIGN_PERSON_AND_ORGANIZATION_ASSIGNMENT ( #131, #86, ( #104 ) ) ;
#196 = APPROVAL_ROLE ( '' ) ;
#197 = PRODUCT_DEFINITION_FORMATION_WITH_SPECIFIED_SOURCE ( 'ANY', '', #104, .NOT_KNOWN. ) ;
#198 = CARTESIAN_POINT ( 'NONE',  ( -25.40000000000000568, 25.39999999999999147, 1.520000000000000018 ) ) ;
#199 = CC_DESIGN_DATE_AND_TIME_ASSIGNMENT ( #90, #156, ( #227 ) ) ;
#200 = CARTESIAN_POINT ( 'NONE',  ( 25.39999999999999147, -25.40000000000001990, 0.000000000000000000 ) ) ;
#201 = VECTOR ( 'NONE', #31, 1000.000000000000000 ) ;
#202 = DIRECTION ( 'NONE',  ( 0.000000000000000000, -0.000000000000000000, -1.000000000000000000 ) ) ;
#203 = CC_DESIGN_APPROVAL ( #119, ( #197 ) ) ;
#204 = CARTESIAN_POINT ( 'NONE',  ( 25.39999999999999147, -25.40000000000001990, 1.520000000000000018 ) ) ;
#205 = APPROVAL ( #19, 'UNSPECIFIED' ) ;
#206 = PLANE ( 'NONE',  #10 ) ;
#207 = CARTESIAN_POINT ( 'NONE',  ( 0.000000000000000000, 0.000000000000000000, 0.000000000000000000 ) ) ;
#208 =( GEOMETRIC_REPRESENTATION_CONTEXT ( 3 ) GLOBAL_UNCERTAINTY_ASSIGNED_CONTEXT ( ( #7 ) ) GLOBAL_UNIT_ASSIGNED_CONTEXT ( ( #9, #134, #211 ) ) REPRESENTATION_CONTEXT ( 'NONE', 'WORKASPACE' ) );
#209 = LINE ( 'NONE', #148, #32 ) ;
#210 = APPROVAL_DATE_TIME ( #85, #55 ) ;
#211 =( NAMED_UNIT ( * ) SI_UNIT ( $, .STERADIAN. ) SOLID_ANGLE_UNIT ( ) );
#212 = ORIENTED_EDGE ( 'NONE', *, *, #49, .F. ) ;
#213 = ADVANCED_FACE ( 'NONE', ( #168 ), #100, .F. ) ;
#214 = VERTEX_POINT ( 'NONE', #228 ) ;
#215 = VECTOR ( 'NONE', #43, 1000.000000000000000 ) ;
#216 = CC_DESIGN_SECURITY_CLASSIFICATION ( #97, ( #197 ) ) ;
#217 = SECURITY_CLASSIFICATION_LEVEL ( 'unclassified' ) ;
#218 = CALENDAR_DATE ( 2022, 25, 3 ) ;
#219 = LOCAL_TIME ( 13, 32, 23.00000000000000000, #142 ) ;
#220 = EDGE_CURVE ( 'NONE', #214, #93, #209, .T. ) ;
#221 = ORIENTED_EDGE ( 'NONE', *, *, #220, .T. ) ;
#222 = FACE_OUTER_BOUND ( 'NONE', #184, .T. ) ;
#223 = LINE ( 'NONE', #125, #56 ) ;
#224 = ORIENTED_EDGE ( 'NONE', *, *, #4, .T. ) ;
#225 = FACE_OUTER_BOUND ( 'NONE', #114, .T. ) ;
#226 = APPROVAL_PERSON_ORGANIZATION ( #122, #205, #196 ) ;
#227 = PRODUCT_DEFINITION ( 'UNKNOWN', '', #197, #232 ) ;
#228 = CARTESIAN_POINT ( 'NONE',  ( -25.40000000000000568, -25.40000000000001990, 1.520000000000000018 ) ) ;
#229 = DIRECTION ( 'NONE',  ( -0.000000000000000000, -0.000000000000000000, -1.000000000000000000 ) ) ;
#230 = ORIENTED_EDGE ( 'NONE', *, *, #28, .F. ) ;
#231 = EDGE_CURVE ( 'NONE', #69, #5, #163, .T. ) ;
#232 = DESIGN_CONTEXT ( 'detailed design', #50, 'design' ) ;
#233 = PERSON_AND_ORGANIZATION ( #176, #183 ) ;
#234 = CC_DESIGN_PERSON_AND_ORGANIZATION_ASSIGNMENT ( #233, #121, ( #197 ) ) ;
#235 = APPROVAL_STATUS ( 'not_yet_approved' ) ;
#236 = AXIS2_PLACEMENT_3D ( 'NONE', #207, #102, #189 ) ;
#237 = COORDINATED_UNIVERSAL_TIME_OFFSET ( 5, 0, .BEHIND. ) ;
ENDSEC;
END-ISO-10303-21;
