ISO-10303-21;
HEADER;
FILE_DESCRIPTION (( 'STEP AP203' ),
    '1' );
FILE_NAME ('Web Model 66186.STEP',
    '2017-01-31T19:34:07',
    ( '' ),
    ( '' ),
    'SwSTEP 2.0',
    'SolidWorks 2016',
    '' );
FILE_SCHEMA (( 'CONFIG_CONTROL_DESIGN' ));
ENDSEC;

DATA;
#1 = CC_DESIGN_DATE_AND_TIME_ASSIGNMENT ( #74, #95, ( #39 ) ) ;
#2 = APPROVAL_DATE_TIME ( #111, #98 ) ;
#3 = VERTEX_POINT ( 'NONE', #150 ) ;
#4 = PLANE ( 'NONE',  #129 ) ;
#5 = DIRECTION ( 'NONE',  ( 1.000000000000000000, 0.0000000000000000000, 0.0000000000000000000 ) ) ;
#6 = CARTESIAN_POINT ( 'NONE',  ( 6.250000000000000000, 7.654042494670957600E-016, 0.0000000000000000000 ) ) ;
#7 = COORDINATED_UNIVERSAL_TIME_OFFSET ( 5, 0, .BEHIND. ) ;
#8 = DIRECTION ( 'NONE',  ( -1.000000000000000000, 0.0000000000000000000, 0.0000000000000000000 ) ) ;
#9 = PRODUCT_DEFINITION_SHAPE ( 'NONE', 'NONE',  #116 ) ;
#10 = DIRECTION ( 'NONE',  ( 1.000000000000000000, 0.0000000000000000000, 0.0000000000000000000 ) ) ;
#11 = APPROVAL_PERSON_ORGANIZATION ( #18, #127, #61 ) ;
#12 = ORIENTED_EDGE ( 'NONE', *, *, #103, .T. ) ;
#13 = PERSON_AND_ORGANIZATION_ROLE ( 'design_owner' ) ;
#14 = CC_DESIGN_SECURITY_CLASSIFICATION ( #39, ( #46 ) ) ;
#15 = DATE_AND_TIME ( #57, #96 ) ;
#16 = CC_DESIGN_PERSON_AND_ORGANIZATION_ASSIGNMENT ( #148, #120, ( #116 ) ) ;
#17 = PERSON_AND_ORGANIZATION ( #73, #48 ) ;
#18 = PERSON_AND_ORGANIZATION ( #73, #48 ) ;
#19 = ORIENTED_EDGE ( 'NONE', *, *, #26, .F. ) ;
#20 = DIRECTION ( 'NONE',  ( 1.000000000000000000, 0.0000000000000000000, -0.0000000000000000000 ) ) ;
#21 = DATE_AND_TIME ( #125, #154 ) ;
#22 = CARTESIAN_POINT ( 'NONE',  ( 0.0000000000000000000, 0.0000000000000000000, 0.2000000000000000100 ) ) ;
#23 = COORDINATED_UNIVERSAL_TIME_OFFSET ( 5, 0, .BEHIND. ) ;
#24 = APPROVAL_PERSON_ORGANIZATION ( #91, #87, #136 ) ;
#25 = APPLICATION_CONTEXT ( 'configuration controlled 3d designs of mechanical parts and assemblies' ) ;
#26 = EDGE_CURVE ( 'NONE', #149, #78, #164, .T. ) ;
#27 =( LENGTH_UNIT ( ) NAMED_UNIT ( * ) SI_UNIT ( .MILLI., .METRE. ) );
#28 = APPROVAL_ROLE ( '' ) ;
#29 = ORIENTED_EDGE ( 'NONE', *, *, #128, .F. ) ;
#30 = EDGE_CURVE ( 'NONE', #78, #3, #86, .T. ) ;
#31 = ORIENTED_EDGE ( 'NONE', *, *, #128, .T. ) ;
#32 = ADVANCED_FACE ( 'NONE', ( #163 ), #115, .F. ) ;
#33 = MANIFOLD_SOLID_BREP ( 'Extrude1', #121 ) ;
#34 = COORDINATED_UNIVERSAL_TIME_OFFSET ( 5, 0, .BEHIND. ) ;
#35 = VECTOR ( 'NONE', #40, 1000.000000000000000 ) ;
#36 = EDGE_CURVE ( 'NONE', #3, #78, #97, .T. ) ;
#37 = CARTESIAN_POINT ( 'NONE',  ( 0.0000000000000000000, 0.0000000000000000000, 0.0000000000000000000 ) ) ;
#38 = LINE ( 'NONE', #82, #35 ) ;
#39 = SECURITY_CLASSIFICATION ( '', '', #171 ) ;
#40 = DIRECTION ( 'NONE',  ( -0.0000000000000000000, -0.0000000000000000000, -1.000000000000000000 ) ) ;
#41 = DIRECTION ( 'NONE',  ( 0.0000000000000000000, 0.0000000000000000000, 1.000000000000000000 ) ) ;
#42 = CARTESIAN_POINT ( 'NONE',  ( 0.0000000000000000000, 0.0000000000000000000, 0.2000000000000000100 ) ) ;
#43 = CALENDAR_DATE ( 2017, 31, 1 ) ;
#44 = CYLINDRICAL_SURFACE ( 'NONE', #66, 6.250000000000000000 ) ;
#45 = APPROVAL_STATUS ( 'not_yet_approved' ) ;
#46 = PRODUCT_DEFINITION_FORMATION_WITH_SPECIFIED_SOURCE ( 'ANY', '', #160, .NOT_KNOWN. ) ;
#47 = MECHANICAL_CONTEXT ( 'NONE', #25, 'mechanical' ) ;
#48 = ORGANIZATION ( 'UNSPECIFIED', 'UNSPECIFIED', '' ) ;
#49 = PERSON_AND_ORGANIZATION ( #73, #48 ) ;
#50 = CC_DESIGN_APPROVAL ( #127, ( #39 ) ) ;
#51 = LOCAL_TIME ( 14, 34, 7.000000000000000000, #34 ) ;
#52 = ORIENTED_EDGE ( 'NONE', *, *, #103, .F. ) ;
#53 = CARTESIAN_POINT ( 'NONE',  ( 0.0000000000000000000, 0.0000000000000000000, 0.2000000000000000100 ) ) ;
#54 = DIRECTION ( 'NONE',  ( 1.000000000000000000, 0.0000000000000000000, 0.0000000000000000000 ) ) ;
#55 =( NAMED_UNIT ( * ) PLANE_ANGLE_UNIT ( ) SI_UNIT ( $, .RADIAN. ) );
#56 = APPROVAL_PERSON_ORGANIZATION ( #49, #98, #28 ) ;
#57 = CALENDAR_DATE ( 2017, 31, 1 ) ;
#58 =( NAMED_UNIT ( * ) SI_UNIT ( $, .STERADIAN. ) SOLID_ANGLE_UNIT ( ) );
#59 = DESIGN_CONTEXT ( 'detailed design', #106, 'design' ) ;
#60 = CC_DESIGN_PERSON_AND_ORGANIZATION_ASSIGNMENT ( #75, #13, ( #160 ) ) ;
#61 = APPROVAL_ROLE ( '' ) ;
#62 = PERSON_AND_ORGANIZATION ( #73, #48 ) ;
#63 = FACE_OUTER_BOUND ( 'NONE', #83, .T. ) ;
#64 = SHAPE_DEFINITION_REPRESENTATION ( #9, #99 ) ;
#65 = FACE_OUTER_BOUND ( 'NONE', #112, .T. ) ;
#66 = AXIS2_PLACEMENT_3D ( 'NONE', #42, #147, #158 ) ;
#67 = CARTESIAN_POINT ( 'NONE',  ( 0.0000000000000000000, 0.0000000000000000000, 0.0000000000000000000 ) ) ;
#68 = EDGE_LOOP ( 'NONE', ( #134, #170 ) ) ;
#69 = CARTESIAN_POINT ( 'NONE',  ( 0.0000000000000000000, 0.0000000000000000000, 0.2000000000000000100 ) ) ;
#70 = DIRECTION ( 'NONE',  ( 1.000000000000000000, 0.0000000000000000000, -0.0000000000000000000 ) ) ;
#71 = DIRECTION ( 'NONE',  ( 0.0000000000000000000, 0.0000000000000000000, 1.000000000000000000 ) ) ;
#72 = APPROVAL_STATUS ( 'not_yet_approved' ) ;
#73 = PERSON ( 'UNSPECIFIED', 'UNSPECIFIED', 'UNSPECIFIED', ('UNSPECIFIED'), ('UNSPECIFIED'), ('UNSPECIFIED') ) ;
#74 = DATE_AND_TIME ( #43, #79 ) ;
#75 = PERSON_AND_ORGANIZATION ( #73, #48 ) ;
#76 = AXIS2_PLACEMENT_3D ( 'NONE', #37, #104, #81 ) ;
#77 = LOCAL_TIME ( 14, 34, 7.000000000000000000, #118 ) ;
#78 = VERTEX_POINT ( 'NONE', #6 ) ;
#79 = LOCAL_TIME ( 14, 34, 7.000000000000000000, #23 ) ;
#80 = ORIENTED_EDGE ( 'NONE', *, *, #114, .T. ) ;
#81 = DIRECTION ( 'NONE',  ( 1.000000000000000000, 0.0000000000000000000, 0.0000000000000000000 ) ) ;
#82 = CARTESIAN_POINT ( 'NONE',  ( -6.250000000000000000, 0.0000000000000000000, 0.2000000000000000100 ) ) ;
#83 = EDGE_LOOP ( 'NONE', ( #80, #12 ) ) ;
#84 = CC_DESIGN_DATE_AND_TIME_ASSIGNMENT ( #156, #119, ( #116 ) ) ;
#85 = APPROVAL_DATE_TIME ( #15, #87 ) ;
#86 = CIRCLE ( 'NONE', #165, 6.250000000000000000 ) ;
#87 = APPROVAL ( #72, 'UNSPECIFIED' ) ;
#88 = ADVANCED_FACE ( 'NONE', ( #113 ), #141, .T. ) ;
#89 = ADVANCED_FACE ( 'NONE', ( #63 ), #4, .T. ) ;
#90 = CC_DESIGN_PERSON_AND_ORGANIZATION_ASSIGNMENT ( #17, #159, ( #39 ) ) ;
#91 = PERSON_AND_ORGANIZATION ( #73, #48 ) ;
#92 = CARTESIAN_POINT ( 'NONE',  ( 0.0000000000000000000, 0.0000000000000000000, 0.0000000000000000000 ) ) ;
#93 = CARTESIAN_POINT ( 'NONE',  ( 6.250000000000000000, 7.654042494670957600E-016, 0.2000000000000000100 ) ) ;
#94 = CARTESIAN_POINT ( 'NONE',  ( -6.250000000000000000, 0.0000000000000000000, 0.2000000000000000100 ) ) ;
#95 = DATE_TIME_ROLE ( 'classification_date' ) ;
#96 = LOCAL_TIME ( 14, 34, 7.000000000000000000, #130 ) ;
#97 = CIRCLE ( 'NONE', #76, 6.250000000000000000 ) ;
#98 = APPROVAL ( #45, 'UNSPECIFIED' ) ;
#99 = ADVANCED_BREP_SHAPE_REPRESENTATION ( 'Web Model 66186', ( #33, #153 ), #140 ) ;
#100 = ADVANCED_FACE ( 'NONE', ( #65 ), #44, .T. ) ;
#101 = CIRCLE ( 'NONE', #132, 6.250000000000000000 ) ;
#102 = DIRECTION ( 'NONE',  ( 0.0000000000000000000, 0.0000000000000000000, 1.000000000000000000 ) ) ;
#103 = EDGE_CURVE ( 'NONE', #149, #166, #101, .T. ) ;
#104 = DIRECTION ( 'NONE',  ( 0.0000000000000000000, 0.0000000000000000000, 1.000000000000000000 ) ) ;
#105 = DIRECTION ( 'NONE',  ( 1.000000000000000000, 0.0000000000000000000, 0.0000000000000000000 ) ) ;
#106 = APPLICATION_CONTEXT ( 'configuration controlled 3d designs of mechanical parts and assemblies' ) ;
#107 = EDGE_LOOP ( 'NONE', ( #19, #172, #31, #175 ) ) ;
#108 = CC_DESIGN_PERSON_AND_ORGANIZATION_ASSIGNMENT ( #62, #151, ( #46 ) ) ;
#109 = CALENDAR_DATE ( 2017, 31, 1 ) ;
#110 = ORIENTED_EDGE ( 'NONE', *, *, #30, .T. ) ;
#111 = DATE_AND_TIME ( #162, #77 ) ;
#112 = EDGE_LOOP ( 'NONE', ( #52, #144, #110, #29 ) ) ;
#113 = FACE_OUTER_BOUND ( 'NONE', #107, .T. ) ;
#114 = EDGE_CURVE ( 'NONE', #166, #149, #174, .T. ) ;
#115 = PLANE ( 'NONE',  #139 ) ;
#116 = PRODUCT_DEFINITION ( 'UNKNOWN', '', #46, #59 ) ;
#117 = DIRECTION ( 'NONE',  ( -0.0000000000000000000, -0.0000000000000000000, -1.000000000000000000 ) ) ;
#118 = COORDINATED_UNIVERSAL_TIME_OFFSET ( 5, 0, .BEHIND. ) ;
#119 = DATE_TIME_ROLE ( 'creation_date' ) ;
#120 = PERSON_AND_ORGANIZATION_ROLE ( 'creator' ) ;
#121 = CLOSED_SHELL ( 'NONE', ( #100, #88, #89, #32 ) ) ;
#122 = CC_DESIGN_APPROVAL ( #98, ( #46 ) ) ;
#123 = APPROVAL_STATUS ( 'not_yet_approved' ) ;
#124 = AXIS2_PLACEMENT_3D ( 'NONE', #22, #117, #8 ) ;
#125 = CALENDAR_DATE ( 2017, 31, 1 ) ;
#126 = PERSON_AND_ORGANIZATION ( #73, #48 ) ;
#127 = APPROVAL ( #123, 'UNSPECIFIED' ) ;
#128 = EDGE_CURVE ( 'NONE', #166, #3, #38, .T. ) ;
#129 = AXIS2_PLACEMENT_3D ( 'NONE', #69, #41, #70 ) ;
#130 = COORDINATED_UNIVERSAL_TIME_OFFSET ( 5, 0, .BEHIND. ) ;
#131 = CARTESIAN_POINT ( 'NONE',  ( 0.0000000000000000000, 0.0000000000000000000, 0.0000000000000000000 ) ) ;
#132 = AXIS2_PLACEMENT_3D ( 'NONE', #53, #167, #54 ) ;
#133 = DIRECTION ( 'NONE',  ( -0.0000000000000000000, -0.0000000000000000000, -1.000000000000000000 ) ) ;
#134 = ORIENTED_EDGE ( 'NONE', *, *, #36, .F. ) ;
#135 = CC_DESIGN_PERSON_AND_ORGANIZATION_ASSIGNMENT ( #126, #138, ( #46 ) ) ;
#136 = APPROVAL_ROLE ( '' ) ;
#137 = AXIS2_PLACEMENT_3D ( 'NONE', #157, #168, #105 ) ;
#138 = PERSON_AND_ORGANIZATION_ROLE ( 'design_supplier' ) ;
#139 = AXIS2_PLACEMENT_3D ( 'NONE', #92, #145, #20 ) ;
#140 =( GEOMETRIC_REPRESENTATION_CONTEXT ( 3 ) GLOBAL_UNCERTAINTY_ASSIGNED_CONTEXT ( ( #173 ) ) GLOBAL_UNIT_ASSIGNED_CONTEXT ( ( #27, #55, #58 ) ) REPRESENTATION_CONTEXT ( 'NONE', 'WORKASPACE' ) );
#141 = CYLINDRICAL_SURFACE ( 'NONE', #124, 6.250000000000000000 ) ;
#142 = APPROVAL_DATE_TIME ( #21, #127 ) ;
#143 = PRODUCT_RELATED_PRODUCT_CATEGORY ( 'detail', '', ( #160 ) ) ;
#144 = ORIENTED_EDGE ( 'NONE', *, *, #26, .T. ) ;
#145 = DIRECTION ( 'NONE',  ( 0.0000000000000000000, 0.0000000000000000000, 1.000000000000000000 ) ) ;
#146 = CARTESIAN_POINT ( 'NONE',  ( 6.250000000000000000, 7.654042494670957600E-016, 0.2000000000000000100 ) ) ;
#147 = DIRECTION ( 'NONE',  ( -0.0000000000000000000, -0.0000000000000000000, -1.000000000000000000 ) ) ;
#148 = PERSON_AND_ORGANIZATION ( #73, #48 ) ;
#149 = VERTEX_POINT ( 'NONE', #93 ) ;
#150 = CARTESIAN_POINT ( 'NONE',  ( -6.250000000000000000, 0.0000000000000000000, 0.0000000000000000000 ) ) ;
#151 = PERSON_AND_ORGANIZATION_ROLE ( 'creator' ) ;
#152 = APPLICATION_PROTOCOL_DEFINITION ( 'international standard', 'config_control_design', 1994, #25 ) ;
#153 = AXIS2_PLACEMENT_3D ( 'NONE', #67, #71, #10 ) ;
#154 = LOCAL_TIME ( 14, 34, 7.000000000000000000, #7 ) ;
#155 = VECTOR ( 'NONE', #133, 1000.000000000000000 ) ;
#156 = DATE_AND_TIME ( #109, #51 ) ;
#157 = CARTESIAN_POINT ( 'NONE',  ( 0.0000000000000000000, 0.0000000000000000000, 0.2000000000000000100 ) ) ;
#158 = DIRECTION ( 'NONE',  ( -1.000000000000000000, 0.0000000000000000000, 0.0000000000000000000 ) ) ;
#159 = PERSON_AND_ORGANIZATION_ROLE ( 'classification_officer' ) ;
#160 = PRODUCT ( 'Web Model 66186', 'Web Model 66186', '', ( #47 ) ) ;
#161 = APPLICATION_PROTOCOL_DEFINITION ( 'international standard', 'config_control_design', 1994, #106 ) ;
#162 = CALENDAR_DATE ( 2017, 31, 1 ) ;
#163 = FACE_OUTER_BOUND ( 'NONE', #68, .T. ) ;
#164 = LINE ( 'NONE', #146, #155 ) ;
#165 = AXIS2_PLACEMENT_3D ( 'NONE', #131, #102, #5 ) ;
#166 = VERTEX_POINT ( 'NONE', #94 ) ;
#167 = DIRECTION ( 'NONE',  ( 0.0000000000000000000, 0.0000000000000000000, 1.000000000000000000 ) ) ;
#168 = DIRECTION ( 'NONE',  ( 0.0000000000000000000, 0.0000000000000000000, 1.000000000000000000 ) ) ;
#169 = CC_DESIGN_APPROVAL ( #87, ( #116 ) ) ;
#170 = ORIENTED_EDGE ( 'NONE', *, *, #30, .F. ) ;
#171 = SECURITY_CLASSIFICATION_LEVEL ( 'unclassified' ) ;
#172 = ORIENTED_EDGE ( 'NONE', *, *, #114, .F. ) ;
#173 = UNCERTAINTY_MEASURE_WITH_UNIT (LENGTH_MEASURE( 1.000000000000000100E-005 ), #27, 'distance_accuracy_value', 'NONE');
#174 = CIRCLE ( 'NONE', #137, 6.250000000000000000 ) ;
#175 = ORIENTED_EDGE ( 'NONE', *, *, #36, .T. ) ;
ENDSEC;
END-ISO-10303-21;
