ISO-10303-21;
HEADER;
FILE_DESCRIPTION (( 'STEP AP203' ),
    '1' );
FILE_NAME ('Web Model 45570_36983.step',
    '2019-01-07T15:32:37',
    ( '' ),
    ( '' ),
    'SwSTEP 2.0',
    'SolidWorks 2016',
    '' );
FILE_SCHEMA (( 'CONFIG_CONTROL_DESIGN' ));
ENDSEC;

DATA;
#1 = ORIENTED_EDGE ( 'NONE', *, *, #31, .F. ) ;
#2 = UNCERTAINTY_MEASURE_WITH_UNIT (LENGTH_MEASURE( 1.000000000000000100E-005 ), #32, 'distance_accuracy_value', 'NONE');
#3 = VERTEX_POINT ( 'NONE', #61 ) ;
#4 = PRODUCT_DEFINITION_FORMATION_WITH_SPECIFIED_SOURCE ( 'ANY', '', #157, .NOT_KNOWN. ) ;
#5 = CARTESIAN_POINT ( 'NONE',  ( 0.0000000000000000000, 0.0000000000000000000, 2.000000000000000000 ) ) ;
#6 = EDGE_LOOP ( 'NONE', ( #161, #1 ) ) ;
#7 = ORIENTED_EDGE ( 'NONE', *, *, #168, .F. ) ;
#8 = DIRECTION ( 'NONE',  ( -0.0000000000000000000, -0.0000000000000000000, -1.000000000000000000 ) ) ;
#9 = CC_DESIGN_PERSON_AND_ORGANIZATION_ASSIGNMENT ( #96, #77, ( #135 ) ) ;
#10 = APPROVAL_STATUS ( 'not_yet_approved' ) ;
#11 = CYLINDRICAL_SURFACE ( 'NONE', #26, 20.00000000000000000 ) ;
#12 = CIRCLE ( 'NONE', #142, 20.00000000000000000 ) ;
#13 = AXIS2_PLACEMENT_3D ( 'NONE', #112, #62, #123 ) ;
#14 = CALENDAR_DATE ( 2019, 7, 1 ) ;
#15 = PERSON ( 'UNSPECIFIED', 'UNSPECIFIED', 'UNSPECIFIED', ('UNSPECIFIED'), ('UNSPECIFIED'), ('UNSPECIFIED') ) ;
#16 = PRODUCT_RELATED_PRODUCT_CATEGORY ( 'detail', '', ( #157 ) ) ;
#17 = PERSON_AND_ORGANIZATION ( #15, #29 ) ;
#18 = DIRECTION ( 'NONE',  ( -1.000000000000000000, 0.0000000000000000000, 0.0000000000000000000 ) ) ;
#19 = DIRECTION ( 'NONE',  ( 0.0000000000000000000, 0.0000000000000000000, 1.000000000000000000 ) ) ;
#20 = LINE ( 'NONE', #73, #101 ) ;
#21 = CARTESIAN_POINT ( 'NONE',  ( 0.0000000000000000000, 0.0000000000000000000, -2.000000000000000000 ) ) ;
#22 = CARTESIAN_POINT ( 'NONE',  ( 20.00000000000000000, 2.449293598294706500E-015, -2.000000000000000000 ) ) ;
#23 = PERSON_AND_ORGANIZATION ( #15, #29 ) ;
#24 = ORIENTED_EDGE ( 'NONE', *, *, #50, .T. ) ;
#25 = LOCAL_TIME ( 10, 32, 37.00000000000000000, #162 ) ;
#26 = AXIS2_PLACEMENT_3D ( 'NONE', #90, #76, #124 ) ;
#27 = CC_DESIGN_PERSON_AND_ORGANIZATION_ASSIGNMENT ( #129, #91, ( #4 ) ) ;
#28 = ADVANCED_BREP_SHAPE_REPRESENTATION ( 'Web Model 45570_36983', ( #53, #38 ), #56 ) ;
#29 = ORGANIZATION ( 'UNSPECIFIED', 'UNSPECIFIED', '' ) ;
#30 = APPROVAL_DATE_TIME ( #95, #69 ) ;
#31 = EDGE_CURVE ( 'NONE', #120, #116, #40, .T. ) ;
#32 =( LENGTH_UNIT ( ) NAMED_UNIT ( * ) SI_UNIT ( .MILLI., .METRE. ) );
#33 = CC_DESIGN_DATE_AND_TIME_ASSIGNMENT ( #132, #114, ( #135 ) ) ;
#34 = ORIENTED_EDGE ( 'NONE', *, *, #50, .F. ) ;
#35 = PLANE ( 'NONE',  #92 ) ;
#36 = CARTESIAN_POINT ( 'NONE',  ( 0.0000000000000000000, 0.0000000000000000000, -2.000000000000000000 ) ) ;
#37 = DIRECTION ( 'NONE',  ( 0.0000000000000000000, 0.0000000000000000000, 1.000000000000000000 ) ) ;
#38 = AXIS2_PLACEMENT_3D ( 'NONE', #141, #60, #72 ) ;
#39 = EDGE_LOOP ( 'NONE', ( #34, #83, #94, #46 ) ) ;
#40 = CIRCLE ( 'NONE', #86, 20.00000000000000000 ) ;
#41 = CIRCLE ( 'NONE', #13, 20.00000000000000000 ) ;
#42 = ORIENTED_EDGE ( 'NONE', *, *, #168, .T. ) ;
#43 = PERSON_AND_ORGANIZATION ( #15, #29 ) ;
#44 = APPLICATION_PROTOCOL_DEFINITION ( 'international standard', 'config_control_design', 1994, #100 ) ;
#45 = PLANE ( 'NONE',  #127 ) ;
#46 = ORIENTED_EDGE ( 'NONE', *, *, #79, .T. ) ;
#47 = LINE ( 'NONE', #88, #52 ) ;
#48 = DIRECTION ( 'NONE',  ( 0.0000000000000000000, 0.0000000000000000000, 1.000000000000000000 ) ) ;
#49 = DATE_AND_TIME ( #67, #64 ) ;
#50 = EDGE_CURVE ( 'NONE', #3, #120, #20, .T. ) ;
#51 = DATE_TIME_ROLE ( 'creation_date' ) ;
#52 = VECTOR ( 'NONE', #8, 1000.000000000000000 ) ;
#53 = MANIFOLD_SOLID_BREP ( 'Boss-Extrude1', #166 ) ;
#54 = ORIENTED_EDGE ( 'NONE', *, *, #66, .F. ) ;
#55 = PRODUCT_DEFINITION ( 'UNKNOWN', '', #4, #106 ) ;
#56 =( GEOMETRIC_REPRESENTATION_CONTEXT ( 3 ) GLOBAL_UNCERTAINTY_ASSIGNED_CONTEXT ( ( #2 ) ) GLOBAL_UNIT_ASSIGNED_CONTEXT ( ( #32, #121, #140 ) ) REPRESENTATION_CONTEXT ( 'NONE', 'WORKASPACE' ) );
#57 = COORDINATED_UNIVERSAL_TIME_OFFSET ( 5, 0, .BEHIND. ) ;
#58 = EDGE_CURVE ( 'NONE', #146, #3, #12, .T. ) ;
#59 = APPROVAL ( #89, 'UNSPECIFIED' ) ;
#60 = DIRECTION ( 'NONE',  ( 0.0000000000000000000, 0.0000000000000000000, 1.000000000000000000 ) ) ;
#61 = CARTESIAN_POINT ( 'NONE',  ( 20.00000000000000000, 2.449293598294706500E-015, 2.000000000000000000 ) ) ;
#62 = DIRECTION ( 'NONE',  ( 0.0000000000000000000, 0.0000000000000000000, 1.000000000000000000 ) ) ;
#63 = CC_DESIGN_PERSON_AND_ORGANIZATION_ASSIGNMENT ( #23, #130, ( #55 ) ) ;
#64 = LOCAL_TIME ( 10, 32, 37.00000000000000000, #98 ) ;
#65 = APPROVAL ( #10, 'UNSPECIFIED' ) ;
#66 = EDGE_CURVE ( 'NONE', #146, #116, #47, .T. ) ;
#67 = CALENDAR_DATE ( 2019, 7, 1 ) ;
#68 = CC_DESIGN_DATE_AND_TIME_ASSIGNMENT ( #49, #51, ( #55 ) ) ;
#69 = APPROVAL ( #93, 'UNSPECIFIED' ) ;
#70 = DIRECTION ( 'NONE',  ( 1.000000000000000000, 0.0000000000000000000, 0.0000000000000000000 ) ) ;
#71 = APPLICATION_CONTEXT ( 'configuration controlled 3d designs of mechanical parts and assemblies' ) ;
#72 = DIRECTION ( 'NONE',  ( 1.000000000000000000, 0.0000000000000000000, 0.0000000000000000000 ) ) ;
#73 = CARTESIAN_POINT ( 'NONE',  ( 20.00000000000000000, 2.449293598294706500E-015, 2.000000000000000000 ) ) ;
#74 = DIRECTION ( 'NONE',  ( 1.000000000000000000, 0.0000000000000000000, -0.0000000000000000000 ) ) ;
#75 = EDGE_LOOP ( 'NONE', ( #136, #42 ) ) ;
#76 = DIRECTION ( 'NONE',  ( -0.0000000000000000000, -0.0000000000000000000, -1.000000000000000000 ) ) ;
#77 = PERSON_AND_ORGANIZATION_ROLE ( 'classification_officer' ) ;
#78 = PERSON_AND_ORGANIZATION_ROLE ( 'creator' ) ;
#79 = EDGE_CURVE ( 'NONE', #116, #120, #158, .T. ) ;
#80 = APPROVAL_ROLE ( '' ) ;
#81 = FACE_OUTER_BOUND ( 'NONE', #152, .T. ) ;
#82 = APPROVAL_DATE_TIME ( #113, #65 ) ;
#83 = ORIENTED_EDGE ( 'NONE', *, *, #58, .F. ) ;
#84 = APPROVAL_DATE_TIME ( #119, #59 ) ;
#85 = CARTESIAN_POINT ( 'NONE',  ( 0.0000000000000000000, 0.0000000000000000000, 2.000000000000000000 ) ) ;
#86 = AXIS2_PLACEMENT_3D ( 'NONE', #103, #48, #170 ) ;
#87 = CC_DESIGN_APPROVAL ( #69, ( #135 ) ) ;
#88 = CARTESIAN_POINT ( 'NONE',  ( -20.00000000000000000, 0.0000000000000000000, 2.000000000000000000 ) ) ;
#89 = APPROVAL_STATUS ( 'not_yet_approved' ) ;
#90 = CARTESIAN_POINT ( 'NONE',  ( 0.0000000000000000000, 0.0000000000000000000, 2.000000000000000000 ) ) ;
#91 = PERSON_AND_ORGANIZATION_ROLE ( 'design_supplier' ) ;
#92 = AXIS2_PLACEMENT_3D ( 'NONE', #5, #108, #74 ) ;
#93 = APPROVAL_STATUS ( 'not_yet_approved' ) ;
#94 = ORIENTED_EDGE ( 'NONE', *, *, #66, .T. ) ;
#95 = DATE_AND_TIME ( #122, #163 ) ;
#96 = PERSON_AND_ORGANIZATION ( #15, #29 ) ;
#97 = SHAPE_DEFINITION_REPRESENTATION ( #143, #28 ) ;
#98 = COORDINATED_UNIVERSAL_TIME_OFFSET ( 5, 0, .BEHIND. ) ;
#99 = DIRECTION ( 'NONE',  ( -0.0000000000000000000, -0.0000000000000000000, -1.000000000000000000 ) ) ;
#100 = APPLICATION_CONTEXT ( 'configuration controlled 3d designs of mechanical parts and assemblies' ) ;
#101 = VECTOR ( 'NONE', #111, 1000.000000000000000 ) ;
#102 = APPROVAL_ROLE ( '' ) ;
#103 = CARTESIAN_POINT ( 'NONE',  ( 0.0000000000000000000, 0.0000000000000000000, -2.000000000000000000 ) ) ;
#104 = APPROVAL_PERSON_ORGANIZATION ( #144, #59, #102 ) ;
#105 = APPROVAL_PERSON_ORGANIZATION ( #137, #69, #80 ) ;
#106 = DESIGN_CONTEXT ( 'detailed design', #71, 'design' ) ;
#107 = ORIENTED_EDGE ( 'NONE', *, *, #31, .T. ) ;
#108 = DIRECTION ( 'NONE',  ( 0.0000000000000000000, 0.0000000000000000000, 1.000000000000000000 ) ) ;
#109 = FACE_OUTER_BOUND ( 'NONE', #6, .T. ) ;
#110 = DIRECTION ( 'NONE',  ( 1.000000000000000000, 0.0000000000000000000, 0.0000000000000000000 ) ) ;
#111 = DIRECTION ( 'NONE',  ( -0.0000000000000000000, -0.0000000000000000000, -1.000000000000000000 ) ) ;
#112 = CARTESIAN_POINT ( 'NONE',  ( 0.0000000000000000000, 0.0000000000000000000, 2.000000000000000000 ) ) ;
#113 = DATE_AND_TIME ( #14, #25 ) ;
#114 = DATE_TIME_ROLE ( 'classification_date' ) ;
#115 = CC_DESIGN_PERSON_AND_ORGANIZATION_ASSIGNMENT ( #43, #78, ( #4 ) ) ;
#116 = VERTEX_POINT ( 'NONE', #165 ) ;
#117 = CC_DESIGN_APPROVAL ( #59, ( #55 ) ) ;
#118 = LOCAL_TIME ( 10, 32, 37.00000000000000000, #57 ) ;
#119 = DATE_AND_TIME ( #154, #138 ) ;
#120 = VERTEX_POINT ( 'NONE', #22 ) ;
#121 =( NAMED_UNIT ( * ) PLANE_ANGLE_UNIT ( ) SI_UNIT ( $, .RADIAN. ) );
#122 = CALENDAR_DATE ( 2019, 7, 1 ) ;
#123 = DIRECTION ( 'NONE',  ( 1.000000000000000000, 0.0000000000000000000, 0.0000000000000000000 ) ) ;
#124 = DIRECTION ( 'NONE',  ( -1.000000000000000000, 0.0000000000000000000, 0.0000000000000000000 ) ) ;
#125 = DIRECTION ( 'NONE',  ( 1.000000000000000000, 0.0000000000000000000, -0.0000000000000000000 ) ) ;
#126 = CARTESIAN_POINT ( 'NONE',  ( -20.00000000000000000, 0.0000000000000000000, 2.000000000000000000 ) ) ;
#127 = AXIS2_PLACEMENT_3D ( 'NONE', #21, #19, #125 ) ;
#128 = ADVANCED_FACE ( 'NONE', ( #151 ), #35, .T. ) ;
#129 = PERSON_AND_ORGANIZATION ( #15, #29 ) ;
#130 = PERSON_AND_ORGANIZATION_ROLE ( 'creator' ) ;
#131 = SECURITY_CLASSIFICATION_LEVEL ( 'unclassified' ) ;
#132 = DATE_AND_TIME ( #147, #118 ) ;
#133 = CC_DESIGN_SECURITY_CLASSIFICATION ( #135, ( #4 ) ) ;
#134 = COORDINATED_UNIVERSAL_TIME_OFFSET ( 5, 0, .BEHIND. ) ;
#135 = SECURITY_CLASSIFICATION ( '', '', #131 ) ;
#136 = ORIENTED_EDGE ( 'NONE', *, *, #58, .T. ) ;
#137 = PERSON_AND_ORGANIZATION ( #15, #29 ) ;
#138 = LOCAL_TIME ( 10, 32, 37.00000000000000000, #134 ) ;
#139 = AXIS2_PLACEMENT_3D ( 'NONE', #85, #99, #18 ) ;
#140 =( NAMED_UNIT ( * ) SI_UNIT ( $, .STERADIAN. ) SOLID_ANGLE_UNIT ( ) );
#141 = CARTESIAN_POINT ( 'NONE',  ( 0.0000000000000000000, 0.0000000000000000000, 0.0000000000000000000 ) ) ;
#142 = AXIS2_PLACEMENT_3D ( 'NONE', #155, #167, #110 ) ;
#143 = PRODUCT_DEFINITION_SHAPE ( 'NONE', 'NONE',  #55 ) ;
#144 = PERSON_AND_ORGANIZATION ( #15, #29 ) ;
#145 = CC_DESIGN_PERSON_AND_ORGANIZATION_ASSIGNMENT ( #17, #156, ( #157 ) ) ;
#146 = VERTEX_POINT ( 'NONE', #126 ) ;
#147 = CALENDAR_DATE ( 2019, 7, 1 ) ;
#148 = FACE_OUTER_BOUND ( 'NONE', #39, .T. ) ;
#149 = CYLINDRICAL_SURFACE ( 'NONE', #139, 20.00000000000000000 ) ;
#150 = AXIS2_PLACEMENT_3D ( 'NONE', #36, #37, #70 ) ;
#151 = FACE_OUTER_BOUND ( 'NONE', #75, .T. ) ;
#152 = EDGE_LOOP ( 'NONE', ( #7, #24, #107, #54 ) ) ;
#153 = COORDINATED_UNIVERSAL_TIME_OFFSET ( 5, 0, .BEHIND. ) ;
#154 = CALENDAR_DATE ( 2019, 7, 1 ) ;
#155 = CARTESIAN_POINT ( 'NONE',  ( 0.0000000000000000000, 0.0000000000000000000, 2.000000000000000000 ) ) ;
#156 = PERSON_AND_ORGANIZATION_ROLE ( 'design_owner' ) ;
#157 = PRODUCT ( 'Web Model 45570_36983', 'Web Model 45570_36983', '', ( #169 ) ) ;
#158 = CIRCLE ( 'NONE', #150, 20.00000000000000000 ) ;
#159 = APPLICATION_PROTOCOL_DEFINITION ( 'international standard', 'config_control_design', 1994, #71 ) ;
#160 = ADVANCED_FACE ( 'NONE', ( #109 ), #45, .F. ) ;
#161 = ORIENTED_EDGE ( 'NONE', *, *, #79, .F. ) ;
#162 = COORDINATED_UNIVERSAL_TIME_OFFSET ( 5, 0, .BEHIND. ) ;
#163 = LOCAL_TIME ( 10, 32, 37.00000000000000000, #153 ) ;
#164 = PERSON_AND_ORGANIZATION ( #15, #29 ) ;
#165 = CARTESIAN_POINT ( 'NONE',  ( -20.00000000000000000, 0.0000000000000000000, -2.000000000000000000 ) ) ;
#166 = CLOSED_SHELL ( 'NONE', ( #172, #171, #128, #160 ) ) ;
#167 = DIRECTION ( 'NONE',  ( 0.0000000000000000000, 0.0000000000000000000, 1.000000000000000000 ) ) ;
#168 = EDGE_CURVE ( 'NONE', #3, #146, #41, .T. ) ;
#169 = MECHANICAL_CONTEXT ( 'NONE', #100, 'mechanical' ) ;
#170 = DIRECTION ( 'NONE',  ( 1.000000000000000000, 0.0000000000000000000, 0.0000000000000000000 ) ) ;
#171 = ADVANCED_FACE ( 'NONE', ( #148 ), #11, .T. ) ;
#172 = ADVANCED_FACE ( 'NONE', ( #81 ), #149, .T. ) ;
#173 = APPROVAL_ROLE ( '' ) ;
#174 = CC_DESIGN_APPROVAL ( #65, ( #4 ) ) ;
#175 = APPROVAL_PERSON_ORGANIZATION ( #164, #65, #173 ) ;
ENDSEC;
END-ISO-10303-21;
