ISO-10303-21;
HEADER;
FILE_DESCRIPTION (( 'STEP AP203' ),
    '1' );
FILE_NAME ('34601_36948.step',
    '2017-08-24T13:13:48',
    ( '' ),
    ( '' ),
    'SwSTEP 2.0',
    'SolidWorks 2016',
    '' );
FILE_SCHEMA (( 'CONFIG_CONTROL_DESIGN' ));
ENDSEC;

DATA;
#1 = CC_DESIGN_PERSON_AND_ORGANIZATION_ASSIGNMENT ( #124, #52, ( #90 ) ) ;
#2 = PERSON_AND_ORGANIZATION_ROLE ( 'creator' ) ;
#3 = EDGE_CURVE ( 'NONE', #57, #135, #173, .T. ) ;
#4 = DIRECTION ( 'NONE',  ( -0.0000000000000000000, -0.0000000000000000000, -1.000000000000000000 ) ) ;
#5 = ORIENTED_EDGE ( 'NONE', *, *, #171, .F. ) ;
#6 = CC_DESIGN_APPROVAL ( #138, ( #90 ) ) ;
#7 = ORIENTED_EDGE ( 'NONE', *, *, #78, .T. ) ;
#8 = ADVANCED_FACE ( 'NONE', ( #137 ), #99, .T. ) ;
#9 = AXIS2_PLACEMENT_3D ( 'NONE', #38, #29, #104 ) ;
#10 = CARTESIAN_POINT ( 'NONE',  ( 0.0000000000000000000, 0.0000000000000000000, 3.000000000000000000 ) ) ;
#11 = EDGE_CURVE ( 'NONE', #135, #110, #112, .T. ) ;
#12 = COORDINATED_UNIVERSAL_TIME_OFFSET ( 5, 0, .BEHIND. ) ;
#13 = ORIENTED_EDGE ( 'NONE', *, *, #67, .F. ) ;
#14 = ADVANCED_FACE ( 'NONE', ( #24 ), #26, .F. ) ;
#15 = CARTESIAN_POINT ( 'NONE',  ( 25.00000000000000000, 3.061616997868383000E-015, 0.0000000000000000000 ) ) ;
#16 = ORIENTED_EDGE ( 'NONE', *, *, #11, .T. ) ;
#17 =( NAMED_UNIT ( * ) SI_UNIT ( $, .STERADIAN. ) SOLID_ANGLE_UNIT ( ) );
#18 = EDGE_LOOP ( 'NONE', ( #77, #159 ) ) ;
#19 = DIRECTION ( 'NONE',  ( -1.000000000000000000, 0.0000000000000000000, 0.0000000000000000000 ) ) ;
#20 = ORIENTED_EDGE ( 'NONE', *, *, #78, .F. ) ;
#21 = PRODUCT_DEFINITION ( 'UNKNOWN', '', #90, #51 ) ;
#22 = CIRCLE ( 'NONE', #105, 25.00000000000000000 ) ;
#23 = PERSON_AND_ORGANIZATION ( #64, #69 ) ;
#24 = FACE_OUTER_BOUND ( 'NONE', #149, .T. ) ;
#25 = MANIFOLD_SOLID_BREP ( 'Boss-Extrude1', #143 ) ;
#26 = PLANE ( 'NONE',  #48 ) ;
#27 = DIRECTION ( 'NONE',  ( 0.0000000000000000000, 0.0000000000000000000, 1.000000000000000000 ) ) ;
#28 = DIRECTION ( 'NONE',  ( 1.000000000000000000, 0.0000000000000000000, 0.0000000000000000000 ) ) ;
#29 = DIRECTION ( 'NONE',  ( 0.0000000000000000000, 0.0000000000000000000, 1.000000000000000000 ) ) ;
#30 = APPROVAL_PERSON_ORGANIZATION ( #162, #138, #91 ) ;
#31 = LOCAL_TIME ( 9, 13, 48.00000000000000000, #12 ) ;
#32 = AXIS2_PLACEMENT_3D ( 'NONE', #142, #128, #47 ) ;
#33 = COORDINATED_UNIVERSAL_TIME_OFFSET ( 5, 0, .BEHIND. ) ;
#34 = CC_DESIGN_APPROVAL ( #41, ( #165 ) ) ;
#35 = ADVANCED_BREP_SHAPE_REPRESENTATION ( '34601_36948', ( #25, #84 ), #75 ) ;
#36 = LOCAL_TIME ( 9, 13, 48.00000000000000000, #121 ) ;
#37 = DIRECTION ( 'NONE',  ( 1.000000000000000000, 0.0000000000000000000, 0.0000000000000000000 ) ) ;
#38 = CARTESIAN_POINT ( 'NONE',  ( 0.0000000000000000000, 0.0000000000000000000, 0.0000000000000000000 ) ) ;
#39 = ORIENTED_EDGE ( 'NONE', *, *, #87, .T. ) ;
#40 = APPROVAL_DATE_TIME ( #169, #138 ) ;
#41 = APPROVAL ( #42, 'UNSPECIFIED' ) ;
#42 = APPROVAL_STATUS ( 'not_yet_approved' ) ;
#43 = PERSON_AND_ORGANIZATION_ROLE ( 'classification_officer' ) ;
#44 = CYLINDRICAL_SURFACE ( 'NONE', #66, 25.00000000000000000 ) ;
#45 = CC_DESIGN_SECURITY_CLASSIFICATION ( #165, ( #90 ) ) ;
#46 = CARTESIAN_POINT ( 'NONE',  ( 0.0000000000000000000, 0.0000000000000000000, 0.0000000000000000000 ) ) ;
#47 = DIRECTION ( 'NONE',  ( 1.000000000000000000, 0.0000000000000000000, 0.0000000000000000000 ) ) ;
#48 = AXIS2_PLACEMENT_3D ( 'NONE', #46, #86, #117 ) ;
#49 = DATE_AND_TIME ( #158, #36 ) ;
#50 = CIRCLE ( 'NONE', #32, 25.00000000000000000 ) ;
#51 = DESIGN_CONTEXT ( 'detailed design', #134, 'design' ) ;
#52 = PERSON_AND_ORGANIZATION_ROLE ( 'design_supplier' ) ;
#53 = PRODUCT_RELATED_PRODUCT_CATEGORY ( 'detail', '', ( #170 ) ) ;
#54 = VECTOR ( 'NONE', #116, 1000.000000000000000 ) ;
#55 = APPROVAL_DATE_TIME ( #49, #41 ) ;
#56 = CARTESIAN_POINT ( 'NONE',  ( -25.00000000000000000, 0.0000000000000000000, 3.000000000000000000 ) ) ;
#57 = VERTEX_POINT ( 'NONE', #113 ) ;
#58 = DIRECTION ( 'NONE',  ( 0.0000000000000000000, 0.0000000000000000000, 1.000000000000000000 ) ) ;
#59 = CARTESIAN_POINT ( 'NONE',  ( 0.0000000000000000000, 0.0000000000000000000, 3.000000000000000000 ) ) ;
#60 =( NAMED_UNIT ( * ) PLANE_ANGLE_UNIT ( ) SI_UNIT ( $, .RADIAN. ) );
#61 = DIRECTION ( 'NONE',  ( -1.000000000000000000, 0.0000000000000000000, 0.0000000000000000000 ) ) ;
#62 = APPROVAL_STATUS ( 'not_yet_approved' ) ;
#63 = DATE_TIME_ROLE ( 'classification_date' ) ;
#64 = PERSON ( 'UNSPECIFIED', 'UNSPECIFIED', 'UNSPECIFIED', ('UNSPECIFIED'), ('UNSPECIFIED'), ('UNSPECIFIED') ) ;
#65 = CALENDAR_DATE ( 2017, 24, 8 ) ;
#66 = AXIS2_PLACEMENT_3D ( 'NONE', #59, #103, #61 ) ;
#67 = EDGE_CURVE ( 'NONE', #135, #57, #50, .T. ) ;
#68 = LOCAL_TIME ( 9, 13, 48.00000000000000000, #33 ) ;
#69 = ORGANIZATION ( 'UNSPECIFIED', 'UNSPECIFIED', '' ) ;
#70 = CALENDAR_DATE ( 2017, 24, 8 ) ;
#71 = ORIENTED_EDGE ( 'NONE', *, *, #171, .T. ) ;
#72 = APPROVAL_ROLE ( '' ) ;
#73 = APPROVAL_STATUS ( 'not_yet_approved' ) ;
#74 = APPLICATION_PROTOCOL_DEFINITION ( 'international standard', 'config_control_design', 1994, #134 ) ;
#75 =( GEOMETRIC_REPRESENTATION_CONTEXT ( 3 ) GLOBAL_UNCERTAINTY_ASSIGNED_CONTEXT ( ( #89 ) ) GLOBAL_UNIT_ASSIGNED_CONTEXT ( ( #92, #60, #17 ) ) REPRESENTATION_CONTEXT ( 'NONE', 'WORKASPACE' ) );
#76 = CALENDAR_DATE ( 2017, 24, 8 ) ;
#77 = ORIENTED_EDGE ( 'NONE', *, *, #67, .T. ) ;
#78 = EDGE_CURVE ( 'NONE', #94, #110, #22, .T. ) ;
#79 = APPLICATION_CONTEXT ( 'configuration controlled 3d designs of mechanical parts and assemblies' ) ;
#80 = APPROVAL_ROLE ( '' ) ;
#81 = APPROVAL_DATE_TIME ( #148, #146 ) ;
#82 = LINE ( 'NONE', #119, #141 ) ;
#83 = PERSON_AND_ORGANIZATION ( #64, #69 ) ;
#84 = AXIS2_PLACEMENT_3D ( 'NONE', #150, #144, #28 ) ;
#85 = DIRECTION ( 'NONE',  ( 0.0000000000000000000, 0.0000000000000000000, 1.000000000000000000 ) ) ;
#86 = DIRECTION ( 'NONE',  ( 0.0000000000000000000, 0.0000000000000000000, 1.000000000000000000 ) ) ;
#87 = EDGE_CURVE ( 'NONE', #110, #94, #155, .T. ) ;
#88 = CYLINDRICAL_SURFACE ( 'NONE', #168, 25.00000000000000000 ) ;
#89 = UNCERTAINTY_MEASURE_WITH_UNIT (LENGTH_MEASURE( 1.000000000000000100E-005 ), #92, 'distance_accuracy_value', 'NONE');
#90 = PRODUCT_DEFINITION_FORMATION_WITH_SPECIFIED_SOURCE ( 'ANY', '', #170, .NOT_KNOWN. ) ;
#91 = APPROVAL_ROLE ( '' ) ;
#92 =( LENGTH_UNIT ( ) NAMED_UNIT ( * ) SI_UNIT ( .MILLI., .METRE. ) );
#93 = AXIS2_PLACEMENT_3D ( 'NONE', #10, #58, #101 ) ;
#94 = VERTEX_POINT ( 'NONE', #15 ) ;
#95 = DATE_AND_TIME ( #70, #68 ) ;
#96 = CC_DESIGN_PERSON_AND_ORGANIZATION_ASSIGNMENT ( #118, #106, ( #170 ) ) ;
#97 = AXIS2_PLACEMENT_3D ( 'NONE', #98, #85, #131 ) ;
#98 = CARTESIAN_POINT ( 'NONE',  ( 0.0000000000000000000, 0.0000000000000000000, 3.000000000000000000 ) ) ;
#99 = PLANE ( 'NONE',  #93 ) ;
#100 = PERSON_AND_ORGANIZATION ( #64, #69 ) ;
#101 = DIRECTION ( 'NONE',  ( 1.000000000000000000, 0.0000000000000000000, -0.0000000000000000000 ) ) ;
#102 = PERSON_AND_ORGANIZATION_ROLE ( 'creator' ) ;
#103 = DIRECTION ( 'NONE',  ( -0.0000000000000000000, -0.0000000000000000000, -1.000000000000000000 ) ) ;
#104 = DIRECTION ( 'NONE',  ( 1.000000000000000000, 0.0000000000000000000, 0.0000000000000000000 ) ) ;
#105 = AXIS2_PLACEMENT_3D ( 'NONE', #127, #27, #37 ) ;
#106 = PERSON_AND_ORGANIZATION_ROLE ( 'design_owner' ) ;
#107 = ORIENTED_EDGE ( 'NONE', *, *, #87, .F. ) ;
#108 = CC_DESIGN_PERSON_AND_ORGANIZATION_ASSIGNMENT ( #100, #102, ( #21 ) ) ;
#109 = APPROVAL_PERSON_ORGANIZATION ( #136, #146, #72 ) ;
#110 = VERTEX_POINT ( 'NONE', #140 ) ;
#111 = CC_DESIGN_APPROVAL ( #146, ( #21 ) ) ;
#112 = LINE ( 'NONE', #56, #54 ) ;
#113 = CARTESIAN_POINT ( 'NONE',  ( 25.00000000000000000, 3.061616997868383000E-015, 3.000000000000000000 ) ) ;
#114 = CC_DESIGN_PERSON_AND_ORGANIZATION_ASSIGNMENT ( #126, #2, ( #90 ) ) ;
#115 = CALENDAR_DATE ( 2017, 24, 8 ) ;
#116 = DIRECTION ( 'NONE',  ( -0.0000000000000000000, -0.0000000000000000000, -1.000000000000000000 ) ) ;
#117 = DIRECTION ( 'NONE',  ( 1.000000000000000000, 0.0000000000000000000, -0.0000000000000000000 ) ) ;
#118 = PERSON_AND_ORGANIZATION ( #64, #69 ) ;
#119 = CARTESIAN_POINT ( 'NONE',  ( 25.00000000000000000, 3.061616997868383000E-015, 3.000000000000000000 ) ) ;
#120 = ORIENTED_EDGE ( 'NONE', *, *, #11, .F. ) ;
#121 = COORDINATED_UNIVERSAL_TIME_OFFSET ( 5, 0, .BEHIND. ) ;
#122 = SHAPE_DEFINITION_REPRESENTATION ( #154, #35 ) ;
#123 = CC_DESIGN_DATE_AND_TIME_ASSIGNMENT ( #95, #63, ( #165 ) ) ;
#124 = PERSON_AND_ORGANIZATION ( #64, #69 ) ;
#125 = ADVANCED_FACE ( 'NONE', ( #156 ), #44, .T. ) ;
#126 = PERSON_AND_ORGANIZATION ( #64, #69 ) ;
#127 = CARTESIAN_POINT ( 'NONE',  ( 0.0000000000000000000, 0.0000000000000000000, 0.0000000000000000000 ) ) ;
#128 = DIRECTION ( 'NONE',  ( 0.0000000000000000000, 0.0000000000000000000, 1.000000000000000000 ) ) ;
#129 = COORDINATED_UNIVERSAL_TIME_OFFSET ( 5, 0, .BEHIND. ) ;
#130 = EDGE_LOOP ( 'NONE', ( #5, #13, #16, #39 ) ) ;
#131 = DIRECTION ( 'NONE',  ( 1.000000000000000000, 0.0000000000000000000, 0.0000000000000000000 ) ) ;
#132 = DATE_AND_TIME ( #115, #172 ) ;
#133 = DIRECTION ( 'NONE',  ( -0.0000000000000000000, -0.0000000000000000000, -1.000000000000000000 ) ) ;
#134 = APPLICATION_CONTEXT ( 'configuration controlled 3d designs of mechanical parts and assemblies' ) ;
#135 = VERTEX_POINT ( 'NONE', #160 ) ;
#136 = PERSON_AND_ORGANIZATION ( #64, #69 ) ;
#137 = FACE_OUTER_BOUND ( 'NONE', #18, .T. ) ;
#138 = APPROVAL ( #73, 'UNSPECIFIED' ) ;
#139 = CC_DESIGN_DATE_AND_TIME_ASSIGNMENT ( #132, #161, ( #21 ) ) ;
#140 = CARTESIAN_POINT ( 'NONE',  ( -25.00000000000000000, 0.0000000000000000000, 0.0000000000000000000 ) ) ;
#141 = VECTOR ( 'NONE', #4, 1000.000000000000000 ) ;
#142 = CARTESIAN_POINT ( 'NONE',  ( 0.0000000000000000000, 0.0000000000000000000, 3.000000000000000000 ) ) ;
#143 = CLOSED_SHELL ( 'NONE', ( #125, #157, #8, #14 ) ) ;
#144 = DIRECTION ( 'NONE',  ( 0.0000000000000000000, 0.0000000000000000000, 1.000000000000000000 ) ) ;
#145 = MECHANICAL_CONTEXT ( 'NONE', #79, 'mechanical' ) ;
#146 = APPROVAL ( #62, 'UNSPECIFIED' ) ;
#147 = CARTESIAN_POINT ( 'NONE',  ( 0.0000000000000000000, 0.0000000000000000000, 3.000000000000000000 ) ) ;
#148 = DATE_AND_TIME ( #65, #166 ) ;
#149 = EDGE_LOOP ( 'NONE', ( #107, #20 ) ) ;
#150 = CARTESIAN_POINT ( 'NONE',  ( 0.0000000000000000000, 0.0000000000000000000, 0.0000000000000000000 ) ) ;
#151 = CC_DESIGN_PERSON_AND_ORGANIZATION_ASSIGNMENT ( #23, #43, ( #165 ) ) ;
#152 = SECURITY_CLASSIFICATION_LEVEL ( 'unclassified' ) ;
#153 = ORIENTED_EDGE ( 'NONE', *, *, #3, .F. ) ;
#154 = PRODUCT_DEFINITION_SHAPE ( 'NONE', 'NONE',  #21 ) ;
#155 = CIRCLE ( 'NONE', #9, 25.00000000000000000 ) ;
#156 = FACE_OUTER_BOUND ( 'NONE', #164, .T. ) ;
#157 = ADVANCED_FACE ( 'NONE', ( #167 ), #88, .T. ) ;
#158 = CALENDAR_DATE ( 2017, 24, 8 ) ;
#159 = ORIENTED_EDGE ( 'NONE', *, *, #3, .T. ) ;
#160 = CARTESIAN_POINT ( 'NONE',  ( -25.00000000000000000, 0.0000000000000000000, 3.000000000000000000 ) ) ;
#161 = DATE_TIME_ROLE ( 'creation_date' ) ;
#162 = PERSON_AND_ORGANIZATION ( #64, #69 ) ;
#163 = APPLICATION_PROTOCOL_DEFINITION ( 'international standard', 'config_control_design', 1994, #79 ) ;
#164 = EDGE_LOOP ( 'NONE', ( #153, #71, #7, #120 ) ) ;
#165 = SECURITY_CLASSIFICATION ( '', '', #152 ) ;
#166 = LOCAL_TIME ( 9, 13, 48.00000000000000000, #129 ) ;
#167 = FACE_OUTER_BOUND ( 'NONE', #130, .T. ) ;
#168 = AXIS2_PLACEMENT_3D ( 'NONE', #147, #133, #19 ) ;
#169 = DATE_AND_TIME ( #76, #31 ) ;
#170 = PRODUCT ( '34601_36948', '34601_36948', '', ( #145 ) ) ;
#171 = EDGE_CURVE ( 'NONE', #57, #94, #82, .T. ) ;
#172 = LOCAL_TIME ( 9, 13, 48.00000000000000000, #174 ) ;
#173 = CIRCLE ( 'NONE', #97, 25.00000000000000000 ) ;
#174 = COORDINATED_UNIVERSAL_TIME_OFFSET ( 5, 0, .BEHIND. ) ;
#175 = APPROVAL_PERSON_ORGANIZATION ( #83, #41, #80 ) ;
ENDSEC;
END-ISO-10303-21;
