ISO-10303-21;
HEADER;
FILE_DESCRIPTION (( 'STEP AP203' ),
    '1' );
FILE_NAME ('Web Model 47048_48574.step',
    '2017-06-06T16:57:43',
    ( '' ),
    ( '' ),
    'SwSTEP 2.0',
    'SolidWorks 2016',
    '' );
FILE_SCHEMA (( 'CONFIG_CONTROL_DESIGN' ));
ENDSEC;

DATA;
#1 = CARTESIAN_POINT ( 'NONE',  ( 0.0000000000000000000, -12.50000000000000000, 12.50000000000000000 ) ) ;
#2 = DIRECTION ( 'NONE',  ( -0.7071067811865474600, 0.7071067811865474600, 0.0000000000000000000 ) ) ;
#3 =( NAMED_UNIT ( * ) SI_UNIT ( $, .STERADIAN. ) SOLID_ANGLE_UNIT ( ) );
#4 = EDGE_LOOP ( 'NONE', ( #115, #49, #241, #42 ) ) ;
#5 = EDGE_CURVE ( 'NONE', #251, #264, #175, .T. ) ;
#6 = PERSON_AND_ORGANIZATION ( #278, #315 ) ;
#7 = DIRECTION ( 'NONE',  ( 0.0000000000000000000, 0.0000000000000000000, 1.000000000000000000 ) ) ;
#8 = CARTESIAN_POINT ( 'NONE',  ( 0.0000000000000000000, -12.50000000000000000, -12.50000000000000000 ) ) ;
#9 = ADVANCED_FACE ( 'NONE', ( #221 ), #122, .F. ) ;
#10 = ORIENTED_EDGE ( 'NONE', *, *, #24, .T. ) ;
#11 = CLOSED_SHELL ( 'NONE', ( #187, #9, #259, #210, #231 ) ) ;
#12 = DIRECTION ( 'NONE',  ( 0.0000000000000000000, 1.000000000000000000, -0.0000000000000000000 ) ) ;
#13 = PLANE ( 'NONE',  #144 ) ;
#14 = VERTEX_POINT ( 'NONE', #303 ) ;
#15 = SHAPE_DEFINITION_REPRESENTATION ( #227, #127 ) ;
#16 = ORIENTED_EDGE ( 'NONE', *, *, #312, .T. ) ;
#17 = PRODUCT_DEFINITION_FORMATION_WITH_SPECIFIED_SOURCE ( 'ANY', '', #314, .NOT_KNOWN. ) ;
#18 = APPROVAL_ROLE ( '' ) ;
#19 = LINE ( 'NONE', #317, #61 ) ;
#20 = ORIENTED_EDGE ( 'NONE', *, *, #204, .F. ) ;
#21 = VERTEX_POINT ( 'NONE', #233 ) ;
#22 = AXIS2_PLACEMENT_3D ( 'NONE', #309, #150, #7 ) ;
#23 = ORIENTED_EDGE ( 'NONE', *, *, #68, .T. ) ;
#24 = EDGE_CURVE ( 'NONE', #111, #234, #121, .T. ) ;
#25 = CARTESIAN_POINT ( 'NONE',  ( -12.50000000000000000, 0.0000000000000000000, 12.50000000000000000 ) ) ;
#26 = VERTEX_POINT ( 'NONE', #185 ) ;
#27 = LINE ( 'NONE', #135, #132 ) ;
#28 = EDGE_CURVE ( 'NONE', #251, #45, #296, .T. ) ;
#29 = EDGE_LOOP ( 'NONE', ( #89, #229, #282, #113 ) ) ;
#30 = APPLICATION_PROTOCOL_DEFINITION ( 'international standard', 'config_control_design', 1994, #206 ) ;
#31 = CARTESIAN_POINT ( 'NONE',  ( -0.0000000000000000000, 0.0000000000000000000, -12.50000000000000000 ) ) ;
#32 = APPROVAL ( #211, 'UNSPECIFIED' ) ;
#33 = EDGE_CURVE ( 'NONE', #53, #101, #27, .T. ) ;
#34 = ORIENTED_EDGE ( 'NONE', *, *, #28, .F. ) ;
#35 = PERSON_AND_ORGANIZATION_ROLE ( 'design_owner' ) ;
#36 = APPROVAL_DATE_TIME ( #263, #156 ) ;
#37 = ORIENTED_EDGE ( 'NONE', *, *, #87, .T. ) ;
#38 = ADVANCED_FACE ( 'NONE', ( #199 ), #200, .T. ) ;
#39 = DIRECTION ( 'NONE',  ( 0.0000000000000000000, -0.0000000000000000000, 1.000000000000000000 ) ) ;
#40 = ORIENTED_EDGE ( 'NONE', *, *, #255, .F. ) ;
#41 = SECURITY_CLASSIFICATION_LEVEL ( 'unclassified' ) ;
#42 = ORIENTED_EDGE ( 'NONE', *, *, #236, .T. ) ;
#43 = APPROVAL_PERSON_ORGANIZATION ( #52, #272, #257 ) ;
#44 = DIRECTION ( 'NONE',  ( 0.0000000000000000000, -0.0000000000000000000, 1.000000000000000000 ) ) ;
#45 = VERTEX_POINT ( 'NONE', #137 ) ;
#46 = PLANE ( 'NONE',  #195 ) ;
#47 = EDGE_CURVE ( 'NONE', #101, #234, #261, .T. ) ;
#48 = DIRECTION ( 'NONE',  ( -0.0000000000000000000, -0.0000000000000000000, -1.000000000000000000 ) ) ;
#49 = ORIENTED_EDGE ( 'NONE', *, *, #297, .F. ) ;
#50 = CC_DESIGN_APPROVAL ( #32, ( #17 ) ) ;
#51 = EDGE_CURVE ( 'NONE', #57, #288, #19, .T. ) ;
#52 = PERSON_AND_ORGANIZATION ( #278, #315 ) ;
#53 = VERTEX_POINT ( 'NONE', #109 ) ;
#54 = DIRECTION ( 'NONE',  ( 0.7071067811865475700, 0.7071067811865475700, -0.0000000000000000000 ) ) ;
#55 = AXIS2_PLACEMENT_3D ( 'NONE', #59, #232, #96 ) ;
#56 = DIRECTION ( 'NONE',  ( -0.0000000000000000000, 0.0000000000000000000, 1.000000000000000000 ) ) ;
#57 = VERTEX_POINT ( 'NONE', #81 ) ;
#58 = LINE ( 'NONE', #290, #82 ) ;
#59 = CARTESIAN_POINT ( 'NONE',  ( 0.0000000000000000000, 0.0000000000000000000, 12.50000000000000000 ) ) ;
#60 = DIRECTION ( 'NONE',  ( -0.0000000000000000000, -0.0000000000000000000, -1.000000000000000000 ) ) ;
#61 = VECTOR ( 'NONE', #202, 1000.000000000000000 ) ;
#62 = PERSON_AND_ORGANIZATION_ROLE ( 'creator' ) ;
#63 = DIRECTION ( 'NONE',  ( 0.0000000000000000000, 1.000000000000000000, -0.0000000000000000000 ) ) ;
#64 = EDGE_CURVE ( 'NONE', #53, #26, #300, .T. ) ;
#65 = APPROVAL_DATE_TIME ( #73, #32 ) ;
#66 = CC_DESIGN_PERSON_AND_ORGANIZATION_ASSIGNMENT ( #310, #62, ( #17 ) ) ;
#67 = CARTESIAN_POINT ( 'NONE',  ( 0.0000000000000000000, 0.0000000000000000000, -12.50000000000000000 ) ) ;
#68 = EDGE_CURVE ( 'NONE', #53, #14, #192, .T. ) ;
#69 = CARTESIAN_POINT ( 'NONE',  ( -12.50000000000000000, 12.50000000000000000, -12.50000000000000000 ) ) ;
#70 = ORIENTED_EDGE ( 'NONE', *, *, #87, .F. ) ;
#71 = CARTESIAN_POINT ( 'NONE',  ( 12.50000000000000000, 0.0000000000000000000, 12.50000000000000000 ) ) ;
#72 = PLANE ( 'NONE',  #126 ) ;
#73 = DATE_AND_TIME ( #321, #98 ) ;
#74 = FACE_OUTER_BOUND ( 'NONE', #4, .T. ) ;
#75 = EDGE_LOOP ( 'NONE', ( #276, #37, #178 ) ) ;
#76 = CARTESIAN_POINT ( 'NONE',  ( 12.50000000000000000, 12.50000000000000000, 12.50000000000000000 ) ) ;
#77 = CARTESIAN_POINT ( 'NONE',  ( 12.50000000000000000, -12.50000000000000000, -12.50000000000000000 ) ) ;
#78 = EDGE_CURVE ( 'NONE', #264, #45, #188, .T. ) ;
#79 = ORIENTED_EDGE ( 'NONE', *, *, #236, .F. ) ;
#80 = DIRECTION ( 'NONE',  ( 0.7071067811865474600, -0.7071067811865474600, 0.0000000000000000000 ) ) ;
#81 = CARTESIAN_POINT ( 'NONE',  ( -12.50000000000000000, -12.50000000000000000, 12.50000000000000000 ) ) ;
#82 = VECTOR ( 'NONE', #180, 1000.000000000000000 ) ;
#83 = CARTESIAN_POINT ( 'NONE',  ( 12.50000000000000000, -12.50000000000000000, 12.50000000000000000 ) ) ;
#84 = CARTESIAN_POINT ( 'NONE',  ( 0.0000000000000000000, 0.0000000000000000000, 12.50000000000000000 ) ) ;
#85 = CARTESIAN_POINT ( 'NONE',  ( 0.0000000000000000000, 0.0000000000000000000, 12.50000000000000000 ) ) ;
#86 = CC_DESIGN_PERSON_AND_ORGANIZATION_ASSIGNMENT ( #240, #293, ( #17 ) ) ;
#87 = EDGE_CURVE ( 'NONE', #14, #234, #58, .T. ) ;
#88 = CARTESIAN_POINT ( 'NONE',  ( 12.50000000000000000, -12.50000000000000000, 12.50000000000000000 ) ) ;
#89 = ORIENTED_EDGE ( 'NONE', *, *, #28, .T. ) ;
#90 = DATE_TIME_ROLE ( 'creation_date' ) ;
#91 = EDGE_LOOP ( 'NONE', ( #131, #20, #283, #23 ) ) ;
#92 = ADVANCED_FACE ( 'NONE', ( #93 ), #13, .F. ) ;
#93 = FACE_OUTER_BOUND ( 'NONE', #91, .T. ) ;
#94 = ORIENTED_EDGE ( 'NONE', *, *, #47, .T. ) ;
#95 = AXIS2_PLACEMENT_3D ( 'NONE', #67, #242, #295 ) ;
#96 = DIRECTION ( 'NONE',  ( 1.000000000000000000, 0.0000000000000000000, 0.0000000000000000000 ) ) ;
#97 = LINE ( 'NONE', #164, #287 ) ;
#98 = LOCAL_TIME ( 12, 57, 43.00000000000000000, #153 ) ;
#99 = PERSON_AND_ORGANIZATION ( #278, #315 ) ;
#100 = EDGE_CURVE ( 'NONE', #14, #111, #120, .T. ) ;
#101 = VERTEX_POINT ( 'NONE', #76 ) ;
#102 = CARTESIAN_POINT ( 'NONE',  ( 0.0000000000000000000, 12.50000000000000000, 12.50000000000000000 ) ) ;
#103 = DIRECTION ( 'NONE',  ( 0.0000000000000000000, 1.000000000000000000, -0.0000000000000000000 ) ) ;
#104 = UNCERTAINTY_MEASURE_WITH_UNIT (LENGTH_MEASURE( 1.000000000000000100E-005 ), #181, 'distance_accuracy_value', 'NONE');
#105 = PERSON_AND_ORGANIZATION ( #278, #315 ) ;
#106 = SECURITY_CLASSIFICATION ( '', '', #41 ) ;
#107 = PERSON_AND_ORGANIZATION ( #278, #315 ) ;
#108 = DIRECTION ( 'NONE',  ( 0.7071067811865474600, -0.7071067811865474600, 0.0000000000000000000 ) ) ;
#109 = CARTESIAN_POINT ( 'NONE',  ( -12.50000000000000000, 12.50000000000000000, 12.50000000000000000 ) ) ;
#110 = CARTESIAN_POINT ( 'NONE',  ( 0.0000000000000000000, 0.0000000000000000000, 12.50000000000000000 ) ) ;
#111 = VERTEX_POINT ( 'NONE', #77 ) ;
#112 = VECTOR ( 'NONE', #220, 1000.000000000000000 ) ;
#113 = ORIENTED_EDGE ( 'NONE', *, *, #297, .T. ) ;
#114 = CARTESIAN_POINT ( 'NONE',  ( 0.0000000000000000000, 0.0000000000000000000, 0.0000000000000000000 ) ) ;
#115 = ORIENTED_EDGE ( 'NONE', *, *, #5, .F. ) ;
#116 = COORDINATED_UNIVERSAL_TIME_OFFSET ( 5, 0, .BEHIND. ) ;
#117 = DIRECTION ( 'NONE',  ( 1.000000000000000000, 0.0000000000000000000, 0.0000000000000000000 ) ) ;
#118 = ADVANCED_FACE ( 'NONE', ( #136 ), #72, .F. ) ;
#119 = VECTOR ( 'NONE', #168, 1000.000000000000100 ) ;
#120 = LINE ( 'NONE', #274, #318 ) ;
#121 = LINE ( 'NONE', #311, #285 ) ;
#122 = PLANE ( 'NONE',  #305 ) ;
#123 = PERSON_AND_ORGANIZATION_ROLE ( 'classification_officer' ) ;
#124 = VECTOR ( 'NONE', #103, 1000.000000000000000 ) ;
#125 = CC_DESIGN_PERSON_AND_ORGANIZATION_ASSIGNMENT ( #107, #123, ( #106 ) ) ;
#126 = AXIS2_PLACEMENT_3D ( 'NONE', #141, #294, #243 ) ;
#127 = ADVANCED_BREP_SHAPE_REPRESENTATION ( 'Web Model 47048_48574', ( #163, #284, #224 ), #149 ) ;
#128 = ORIENTED_EDGE ( 'NONE', *, *, #225, .T. ) ;
#129 = VECTOR ( 'NONE', #256, 1000.000000000000000 ) ;
#130 = AXIS2_PLACEMENT_3D ( 'NONE', #271, #289, #155 ) ;
#131 = ORIENTED_EDGE ( 'NONE', *, *, #100, .T. ) ;
#132 = VECTOR ( 'NONE', #160, 1000.000000000000000 ) ;
#133 = LINE ( 'NONE', #25, #275 ) ;
#134 = VECTOR ( 'NONE', #249, 1000.000000000000000 ) ;
#135 = CARTESIAN_POINT ( 'NONE',  ( 0.0000000000000000000, 12.50000000000000000, 12.50000000000000000 ) ) ;
#136 = FACE_OUTER_BOUND ( 'NONE', #142, .T. ) ;
#137 = CARTESIAN_POINT ( 'NONE',  ( 12.50000000000000000, -12.50000000000000000, -12.50000000000000000 ) ) ;
#138 = DIRECTION ( 'NONE',  ( 1.000000000000000000, 0.0000000000000000000, 0.0000000000000000000 ) ) ;
#139 = CARTESIAN_POINT ( 'NONE',  ( 0.0000000000000000000, 0.0000000000000000000, 12.50000000000000000 ) ) ;
#140 = EDGE_LOOP ( 'NONE', ( #196, #291, #34 ) ) ;
#141 = CARTESIAN_POINT ( 'NONE',  ( 12.50000000000000000, 0.0000000000000000000, 12.50000000000000000 ) ) ;
#142 = EDGE_LOOP ( 'NONE', ( #10, #245, #40, #306 ) ) ;
#143 = CC_DESIGN_DATE_AND_TIME_ASSIGNMENT ( #209, #217, ( #106 ) ) ;
#144 = AXIS2_PLACEMENT_3D ( 'NONE', #139, #54, #2 ) ;
#145 = ADVANCED_FACE ( 'NONE', ( #254 ), #46, .T. ) ;
#146 = VECTOR ( 'NONE', #63, 1000.000000000000000 ) ;
#147 = PLANE ( 'NONE',  #55 ) ;
#148 = VECTOR ( 'NONE', #108, 1000.000000000000100 ) ;
#149 =( GEOMETRIC_REPRESENTATION_CONTEXT ( 3 ) GLOBAL_UNCERTAINTY_ASSIGNED_CONTEXT ( ( #104 ) ) GLOBAL_UNIT_ASSIGNED_CONTEXT ( ( #181, #183, #3 ) ) REPRESENTATION_CONTEXT ( 'NONE', 'WORKASPACE' ) );
#150 = DIRECTION ( 'NONE',  ( -1.000000000000000000, 0.0000000000000000000, 0.0000000000000000000 ) ) ;
#151 = LOCAL_TIME ( 12, 57, 43.00000000000000000, #213 ) ;
#152 = ORIENTED_EDGE ( 'NONE', *, *, #68, .F. ) ;
#153 = COORDINATED_UNIVERSAL_TIME_OFFSET ( 5, 0, .BEHIND. ) ;
#154 = APPROVAL_PERSON_ORGANIZATION ( #6, #156, #18 ) ;
#155 = DIRECTION ( 'NONE',  ( -0.7071067811865474600, 0.7071067811865474600, 0.0000000000000000000 ) ) ;
#156 = APPROVAL ( #266, 'UNSPECIFIED' ) ;
#157 = DIRECTION ( 'NONE',  ( 1.000000000000000000, 0.0000000000000000000, 0.0000000000000000000 ) ) ;
#158 = DATE_AND_TIME ( #269, #151 ) ;
#159 = VECTOR ( 'NONE', #80, 1000.000000000000100 ) ;
#160 = DIRECTION ( 'NONE',  ( 1.000000000000000000, 0.0000000000000000000, 0.0000000000000000000 ) ) ;
#161 = PLANE ( 'NONE',  #162 ) ;
#162 = AXIS2_PLACEMENT_3D ( 'NONE', #173, #56, #138 ) ;
#163 = MANIFOLD_SOLID_BREP ( 'Boss-Extrude2', #11 ) ;
#164 = CARTESIAN_POINT ( 'NONE',  ( -12.50000000000000000, 12.50000000000000000, 12.50000000000000000 ) ) ;
#165 = ORIENTED_EDGE ( 'NONE', *, *, #64, .T. ) ;
#166 = APPROVAL_PERSON_ORGANIZATION ( #216, #32, #193 ) ;
#167 = PLANE ( 'NONE',  #22 ) ;
#168 = DIRECTION ( 'NONE',  ( 0.7071067811865474600, -0.7071067811865474600, 0.0000000000000000000 ) ) ;
#169 = LINE ( 'NONE', #223, #171 ) ;
#170 = CC_DESIGN_APPROVAL ( #156, ( #106 ) ) ;
#171 = VECTOR ( 'NONE', #48, 1000.000000000000000 ) ;
#172 = FACE_OUTER_BOUND ( 'NONE', #189, .T. ) ;
#173 = CARTESIAN_POINT ( 'NONE',  ( 0.0000000000000000000, 0.0000000000000000000, -12.50000000000000000 ) ) ;
#174 = CARTESIAN_POINT ( 'NONE',  ( -12.50000000000000000, 12.50000000000000000, 12.50000000000000000 ) ) ;
#175 = LINE ( 'NONE', #262, #146 ) ;
#176 = VECTOR ( 'NONE', #60, 1000.000000000000000 ) ;
#177 = LINE ( 'NONE', #83, #112 ) ;
#178 = ORIENTED_EDGE ( 'NONE', *, *, #24, .F. ) ;
#179 = APPLICATION_PROTOCOL_DEFINITION ( 'international standard', 'config_control_design', 1994, #244 ) ;
#180 = DIRECTION ( 'NONE',  ( 1.000000000000000000, 0.0000000000000000000, 0.0000000000000000000 ) ) ;
#181 =( LENGTH_UNIT ( ) NAMED_UNIT ( * ) SI_UNIT ( .MILLI., .METRE. ) );
#182 = ORIENTED_EDGE ( 'NONE', *, *, #33, .F. ) ;
#183 =( NAMED_UNIT ( * ) PLANE_ANGLE_UNIT ( ) SI_UNIT ( $, .RADIAN. ) );
#184 = DIRECTION ( 'NONE',  ( 0.0000000000000000000, 1.000000000000000000, -0.0000000000000000000 ) ) ;
#185 = CARTESIAN_POINT ( 'NONE',  ( 12.50000000000000000, -12.50000000000000000, 12.50000000000000000 ) ) ;
#186 = CC_DESIGN_SECURITY_CLASSIFICATION ( #106, ( #17 ) ) ;
#187 = ADVANCED_FACE ( 'NONE', ( #74 ), #167, .T. ) ;
#188 = LINE ( 'NONE', #31, #119 ) ;
#189 = EDGE_LOOP ( 'NONE', ( #301, #79, #16, #128 ) ) ;
#190 = LINE ( 'NONE', #260, #197 ) ;
#191 = EDGE_LOOP ( 'NONE', ( #165, #267, #182 ) ) ;
#192 = LINE ( 'NONE', #174, #176 ) ;
#193 = APPROVAL_ROLE ( '' ) ;
#194 = CARTESIAN_POINT ( 'NONE',  ( -12.50000000000000000, -12.50000000000000000, -12.50000000000000000 ) ) ;
#195 = AXIS2_PLACEMENT_3D ( 'NONE', #102, #219, #44 ) ;
#196 = ORIENTED_EDGE ( 'NONE', *, *, #5, .T. ) ;
#197 = VECTOR ( 'NONE', #250, 1000.000000000000000 ) ;
#198 = PLANE ( 'NONE',  #95 ) ;
#199 = FACE_OUTER_BOUND ( 'NONE', #191, .T. ) ;
#200 = PLANE ( 'NONE',  #273 ) ;
#201 = PRODUCT_RELATED_PRODUCT_CATEGORY ( 'detail', '', ( #314 ) ) ;
#202 = DIRECTION ( 'NONE',  ( 1.000000000000000000, 0.0000000000000000000, 0.0000000000000000000 ) ) ;
#203 = FACE_OUTER_BOUND ( 'NONE', #277, .T. ) ;
#204 = EDGE_CURVE ( 'NONE', #26, #111, #177, .T. ) ;
#205 = DIRECTION ( 'NONE',  ( 0.0000000000000000000, 0.0000000000000000000, 1.000000000000000000 ) ) ;
#206 = APPLICATION_CONTEXT ( 'configuration controlled 3d designs of mechanical parts and assemblies' ) ;
#207 = LINE ( 'NONE', #71, #124 ) ;
#208 = APPROVAL_STATUS ( 'not_yet_approved' ) ;
#209 = DATE_AND_TIME ( #222, #316 ) ;
#210 = ADVANCED_FACE ( 'NONE', ( #203 ), #147, .T. ) ;
#211 = APPROVAL_STATUS ( 'not_yet_approved' ) ;
#212 = DIRECTION ( 'NONE',  ( 0.0000000000000000000, 1.000000000000000000, 0.0000000000000000000 ) ) ;
#213 = COORDINATED_UNIVERSAL_TIME_OFFSET ( 5, 0, .BEHIND. ) ;
#214 = CALENDAR_DATE ( 2017, 6, 6 ) ;
#215 = APPROVAL_DATE_TIME ( #158, #272 ) ;
#216 = PERSON_AND_ORGANIZATION ( #278, #315 ) ;
#217 = DATE_TIME_ROLE ( 'classification_date' ) ;
#218 = LOCAL_TIME ( 12, 57, 43.00000000000000000, #237 ) ;
#219 = DIRECTION ( 'NONE',  ( 0.0000000000000000000, 1.000000000000000000, 0.0000000000000000000 ) ) ;
#220 = DIRECTION ( 'NONE',  ( -0.0000000000000000000, -0.0000000000000000000, -1.000000000000000000 ) ) ;
#221 = FACE_OUTER_BOUND ( 'NONE', #29, .T. ) ;
#222 = CALENDAR_DATE ( 2017, 6, 6 ) ;
#223 = CARTESIAN_POINT ( 'NONE',  ( 12.50000000000000000, -12.50000000000000000, 12.50000000000000000 ) ) ;
#224 = AXIS2_PLACEMENT_3D ( 'NONE', #114, #205, #117 ) ;
#225 = EDGE_CURVE ( 'NONE', #288, #45, #169, .T. ) ;
#226 = DIRECTION ( 'NONE',  ( -0.0000000000000000000, 0.0000000000000000000, 1.000000000000000000 ) ) ;
#227 = PRODUCT_DEFINITION_SHAPE ( 'NONE', 'NONE',  #253 ) ;
#228 = FACE_OUTER_BOUND ( 'NONE', #75, .T. ) ;
#229 = ORIENTED_EDGE ( 'NONE', *, *, #225, .F. ) ;
#230 = MECHANICAL_CONTEXT ( 'NONE', #244, 'mechanical' ) ;
#231 = ADVANCED_FACE ( 'NONE', ( #302 ), #198, .F. ) ;
#232 = DIRECTION ( 'NONE',  ( -0.0000000000000000000, 0.0000000000000000000, 1.000000000000000000 ) ) ;
#233 = CARTESIAN_POINT ( 'NONE',  ( -12.50000000000000000, 12.50000000000000000, 12.50000000000000000 ) ) ;
#234 = VERTEX_POINT ( 'NONE', #238 ) ;
#235 = CC_DESIGN_PERSON_AND_ORGANIZATION_ASSIGNMENT ( #105, #35, ( #314 ) ) ;
#236 = EDGE_CURVE ( 'NONE', #21, #264, #97, .T. ) ;
#237 = COORDINATED_UNIVERSAL_TIME_OFFSET ( 5, 0, .BEHIND. ) ;
#238 = CARTESIAN_POINT ( 'NONE',  ( 12.50000000000000000, 12.50000000000000000, -12.50000000000000000 ) ) ;
#239 = DIRECTION ( 'NONE',  ( -0.0000000000000000000, -0.0000000000000000000, -1.000000000000000000 ) ) ;
#240 = PERSON_AND_ORGANIZATION ( #278, #315 ) ;
#241 = ORIENTED_EDGE ( 'NONE', *, *, #281, .T. ) ;
#242 = DIRECTION ( 'NONE',  ( -0.0000000000000000000, 0.0000000000000000000, 1.000000000000000000 ) ) ;
#243 = DIRECTION ( 'NONE',  ( 0.0000000000000000000, 0.0000000000000000000, 1.000000000000000000 ) ) ;
#244 = APPLICATION_CONTEXT ( 'configuration controlled 3d designs of mechanical parts and assemblies' ) ;
#245 = ORIENTED_EDGE ( 'NONE', *, *, #47, .F. ) ;
#246 = ORIENTED_EDGE ( 'NONE', *, *, #51, .T. ) ;
#247 = LINE ( 'NONE', #85, #159 ) ;
#248 = ORIENTED_EDGE ( 'NONE', *, *, #33, .T. ) ;
#249 = DIRECTION ( 'NONE',  ( 1.000000000000000000, 0.0000000000000000000, 0.0000000000000000000 ) ) ;
#250 = DIRECTION ( 'NONE',  ( -0.0000000000000000000, -0.0000000000000000000, -1.000000000000000000 ) ) ;
#251 = VERTEX_POINT ( 'NONE', #194 ) ;
#252 = LOCAL_TIME ( 12, 57, 43.00000000000000000, #116 ) ;
#253 = PRODUCT_DEFINITION ( 'UNKNOWN', '', #17, #299 ) ;
#254 = FACE_OUTER_BOUND ( 'NONE', #320, .T. ) ;
#255 = EDGE_CURVE ( 'NONE', #26, #101, #207, .T. ) ;
#256 = DIRECTION ( 'NONE',  ( -0.0000000000000000000, -0.0000000000000000000, -1.000000000000000000 ) ) ;
#257 = APPROVAL_ROLE ( '' ) ;
#258 = CARTESIAN_POINT ( 'NONE',  ( 12.50000000000000000, 12.50000000000000000, 12.50000000000000000 ) ) ;
#259 = ADVANCED_FACE ( 'NONE', ( #172 ), #298, .T. ) ;
#260 = CARTESIAN_POINT ( 'NONE',  ( -12.50000000000000000, -12.50000000000000000, 12.50000000000000000 ) ) ;
#261 = LINE ( 'NONE', #258, #129 ) ;
#262 = CARTESIAN_POINT ( 'NONE',  ( -12.50000000000000000, 0.0000000000000000000, -12.50000000000000000 ) ) ;
#263 = DATE_AND_TIME ( #214, #252 ) ;
#264 = VERTEX_POINT ( 'NONE', #69 ) ;
#265 = DATE_AND_TIME ( #270, #218 ) ;
#266 = APPROVAL_STATUS ( 'not_yet_approved' ) ;
#267 = ORIENTED_EDGE ( 'NONE', *, *, #255, .T. ) ;
#268 = ORIENTED_EDGE ( 'NONE', *, *, #281, .F. ) ;
#269 = CALENDAR_DATE ( 2017, 6, 6 ) ;
#270 = CALENDAR_DATE ( 2017, 6, 6 ) ;
#271 = CARTESIAN_POINT ( 'NONE',  ( 0.0000000000000000000, 0.0000000000000000000, 12.50000000000000000 ) ) ;
#272 = APPROVAL ( #208, 'UNSPECIFIED' ) ;
#273 = AXIS2_PLACEMENT_3D ( 'NONE', #110, #226, #157 ) ;
#274 = CARTESIAN_POINT ( 'NONE',  ( -0.0000000000000000000, 0.0000000000000000000, -12.50000000000000000 ) ) ;
#275 = VECTOR ( 'NONE', #184, 1000.000000000000000 ) ;
#276 = ORIENTED_EDGE ( 'NONE', *, *, #100, .F. ) ;
#277 = EDGE_LOOP ( 'NONE', ( #268, #246, #280 ) ) ;
#278 = PERSON ( 'UNSPECIFIED', 'UNSPECIFIED', 'UNSPECIFIED', ('UNSPECIFIED'), ('UNSPECIFIED'), ('UNSPECIFIED') ) ;
#279 = DIRECTION ( 'NONE',  ( 0.7071067811865474600, -0.7071067811865474600, 0.0000000000000000000 ) ) ;
#280 = ORIENTED_EDGE ( 'NONE', *, *, #312, .F. ) ;
#281 = EDGE_CURVE ( 'NONE', #57, #21, #133, .T. ) ;
#282 = ORIENTED_EDGE ( 'NONE', *, *, #51, .F. ) ;
#283 = ORIENTED_EDGE ( 'NONE', *, *, #64, .F. ) ;
#284 = MANIFOLD_SOLID_BREP ( 'Boss-Extrude3', #307 ) ;
#285 = VECTOR ( 'NONE', #12, 1000.000000000000000 ) ;
#286 = PERSON_AND_ORGANIZATION_ROLE ( 'creator' ) ;
#287 = VECTOR ( 'NONE', #239, 1000.000000000000000 ) ;
#288 = VERTEX_POINT ( 'NONE', #88 ) ;
#289 = DIRECTION ( 'NONE',  ( 0.7071067811865475700, 0.7071067811865475700, -0.0000000000000000000 ) ) ;
#290 = CARTESIAN_POINT ( 'NONE',  ( -0.0000000000000000000, 12.50000000000000000, -12.50000000000000000 ) ) ;
#291 = ORIENTED_EDGE ( 'NONE', *, *, #78, .T. ) ;
#292 = CC_DESIGN_APPROVAL ( #272, ( #253 ) ) ;
#293 = PERSON_AND_ORGANIZATION_ROLE ( 'design_supplier' ) ;
#294 = DIRECTION ( 'NONE',  ( -1.000000000000000000, 0.0000000000000000000, 0.0000000000000000000 ) ) ;
#295 = DIRECTION ( 'NONE',  ( 1.000000000000000000, 0.0000000000000000000, 0.0000000000000000000 ) ) ;
#296 = LINE ( 'NONE', #8, #134 ) ;
#297 = EDGE_CURVE ( 'NONE', #57, #251, #190, .T. ) ;
#298 = PLANE ( 'NONE',  #130 ) ;
#299 = DESIGN_CONTEXT ( 'detailed design', #206, 'design' ) ;
#300 = LINE ( 'NONE', #84, #148 ) ;
#301 = ORIENTED_EDGE ( 'NONE', *, *, #78, .F. ) ;
#302 = FACE_OUTER_BOUND ( 'NONE', #140, .T. ) ;
#303 = CARTESIAN_POINT ( 'NONE',  ( -12.50000000000000000, 12.50000000000000000, -12.50000000000000000 ) ) ;
#304 = CC_DESIGN_PERSON_AND_ORGANIZATION_ASSIGNMENT ( #99, #286, ( #253 ) ) ;
#305 = AXIS2_PLACEMENT_3D ( 'NONE', #1, #212, #39 ) ;
#306 = ORIENTED_EDGE ( 'NONE', *, *, #204, .T. ) ;
#307 = CLOSED_SHELL ( 'NONE', ( #92, #118, #145, #38, #308 ) ) ;
#308 = ADVANCED_FACE ( 'NONE', ( #228 ), #161, .F. ) ;
#309 = CARTESIAN_POINT ( 'NONE',  ( -12.50000000000000000, 0.0000000000000000000, 12.50000000000000000 ) ) ;
#310 = PERSON_AND_ORGANIZATION ( #278, #315 ) ;
#311 = CARTESIAN_POINT ( 'NONE',  ( 12.50000000000000000, 0.0000000000000000000, -12.50000000000000000 ) ) ;
#312 = EDGE_CURVE ( 'NONE', #21, #288, #247, .T. ) ;
#313 = COORDINATED_UNIVERSAL_TIME_OFFSET ( 5, 0, .BEHIND. ) ;
#314 = PRODUCT ( 'Web Model 47048_48574', 'Web Model 47048_48574', '', ( #230 ) ) ;
#315 = ORGANIZATION ( 'UNSPECIFIED', 'UNSPECIFIED', '' ) ;
#316 = LOCAL_TIME ( 12, 57, 43.00000000000000000, #313 ) ;
#317 = CARTESIAN_POINT ( 'NONE',  ( 0.0000000000000000000, -12.50000000000000000, 12.50000000000000000 ) ) ;
#318 = VECTOR ( 'NONE', #279, 1000.000000000000100 ) ;
#319 = CC_DESIGN_DATE_AND_TIME_ASSIGNMENT ( #265, #90, ( #253 ) ) ;
#320 = EDGE_LOOP ( 'NONE', ( #70, #152, #248, #94 ) ) ;
#321 = CALENDAR_DATE ( 2017, 6, 6 ) ;
ENDSEC;
END-ISO-10303-21;
