ISO-10303-21;
HEADER;
FILE_DESCRIPTION (( 'STEP AP203' ),
    '1' );
FILE_NAME ('34430_37019.step',
    '2017-09-06T15:51:27',
    ( '' ),
    ( '' ),
    'SwSTEP 2.0',
    'SolidWorks 2016',
    '' );
FILE_SCHEMA (( 'CONFIG_CONTROL_DESIGN' ));
ENDSEC;

DATA;
#1 = APPROVAL_ROLE ( '' ) ;
#2 = APPROVAL_STATUS ( 'not_yet_approved' ) ;
#3 = APPROVAL_ROLE ( '' ) ;
#4 = PERSON_AND_ORGANIZATION ( #146, #53 ) ;
#5 = CALENDAR_DATE ( 2017, 6, 9 ) ;
#6 = CC_DESIGN_PERSON_AND_ORGANIZATION_ASSIGNMENT ( #101, #132, ( #151 ) ) ;
#7 = ORIENTED_EDGE ( 'NONE', *, *, #66, .T. ) ;
#8 = PLANE ( 'NONE',  #81 ) ;
#9 = CIRCLE ( 'NONE', #136, 25.00000000000000000 ) ;
#10 = DIRECTION ( 'NONE',  ( -1.000000000000000000, 0.0000000000000000000, 0.0000000000000000000 ) ) ;
#11 = CC_DESIGN_APPROVAL ( #149, ( #173 ) ) ;
#12 = CYLINDRICAL_SURFACE ( 'NONE', #175, 25.00000000000000000 ) ;
#13 = CIRCLE ( 'NONE', #143, 25.00000000000000000 ) ;
#14 =( NAMED_UNIT ( * ) PLANE_ANGLE_UNIT ( ) SI_UNIT ( $, .RADIAN. ) );
#15 = APPROVAL_STATUS ( 'not_yet_approved' ) ;
#16 = AXIS2_PLACEMENT_3D ( 'NONE', #130, #88, #118 ) ;
#17 = CC_DESIGN_PERSON_AND_ORGANIZATION_ASSIGNMENT ( #140, #27, ( #173 ) ) ;
#18 = CARTESIAN_POINT ( 'NONE',  ( 0.0000000000000000000, 0.0000000000000000000, 6.000000000000000000 ) ) ;
#19 = LOCAL_TIME ( 11, 51, 27.00000000000000000, #144 ) ;
#20 = ADVANCED_FACE ( 'NONE', ( #122 ), #12, .T. ) ;
#21 = DESIGN_CONTEXT ( 'detailed design', #47, 'design' ) ;
#22 = LOCAL_TIME ( 11, 51, 27.00000000000000000, #79 ) ;
#23 = DIRECTION ( 'NONE',  ( 0.0000000000000000000, 0.0000000000000000000, 1.000000000000000000 ) ) ;
#24 = CARTESIAN_POINT ( 'NONE',  ( 0.0000000000000000000, 0.0000000000000000000, 0.0000000000000000000 ) ) ;
#25 = DATE_TIME_ROLE ( 'creation_date' ) ;
#26 = DIRECTION ( 'NONE',  ( 0.0000000000000000000, 0.0000000000000000000, 1.000000000000000000 ) ) ;
#27 = PERSON_AND_ORGANIZATION_ROLE ( 'creator' ) ;
#28 = LINE ( 'NONE', #49, #89 ) ;
#29 = LOCAL_TIME ( 11, 51, 27.00000000000000000, #98 ) ;
#30 = CARTESIAN_POINT ( 'NONE',  ( -25.00000000000000000, 0.0000000000000000000, 0.0000000000000000000 ) ) ;
#31 = CARTESIAN_POINT ( 'NONE',  ( 0.0000000000000000000, 0.0000000000000000000, 6.000000000000000000 ) ) ;
#32 = CALENDAR_DATE ( 2017, 6, 9 ) ;
#33 = EDGE_LOOP ( 'NONE', ( #7, #110 ) ) ;
#34 = AXIS2_PLACEMENT_3D ( 'NONE', #45, #60, #107 ) ;
#35 = APPLICATION_PROTOCOL_DEFINITION ( 'international standard', 'config_control_design', 1994, #47 ) ;
#36 = SECURITY_CLASSIFICATION_LEVEL ( 'unclassified' ) ;
#37 = FACE_OUTER_BOUND ( 'NONE', #139, .T. ) ;
#38 = APPLICATION_CONTEXT ( 'configuration controlled 3d designs of mechanical parts and assemblies' ) ;
#39 = AXIS2_PLACEMENT_3D ( 'NONE', #147, #103, #133 ) ;
#40 = APPROVAL_DATE_TIME ( #153, #91 ) ;
#41 = ADVANCED_FACE ( 'NONE', ( #37 ), #8, .F. ) ;
#42 = ORIENTED_EDGE ( 'NONE', *, *, #97, .T. ) ;
#43 = DIRECTION ( 'NONE',  ( 1.000000000000000000, 0.0000000000000000000, 0.0000000000000000000 ) ) ;
#44 = UNCERTAINTY_MEASURE_WITH_UNIT (LENGTH_MEASURE( 1.000000000000000100E-005 ), #72, 'distance_accuracy_value', 'NONE');
#45 = CARTESIAN_POINT ( 'NONE',  ( 0.0000000000000000000, 0.0000000000000000000, 6.000000000000000000 ) ) ;
#46 = CC_DESIGN_PERSON_AND_ORGANIZATION_ASSIGNMENT ( #59, #85, ( #86 ) ) ;
#47 = APPLICATION_CONTEXT ( 'configuration controlled 3d designs of mechanical parts and assemblies' ) ;
#48 = COORDINATED_UNIVERSAL_TIME_OFFSET ( 5, 0, .BEHIND. ) ;
#49 = CARTESIAN_POINT ( 'NONE',  ( -25.00000000000000000, 0.0000000000000000000, 6.000000000000000000 ) ) ;
#50 = DIRECTION ( 'NONE',  ( -0.0000000000000000000, -0.0000000000000000000, -1.000000000000000000 ) ) ;
#51 = CYLINDRICAL_SURFACE ( 'NONE', #115, 25.00000000000000000 ) ;
#52 = ORIENTED_EDGE ( 'NONE', *, *, #97, .F. ) ;
#53 = ORGANIZATION ( 'UNSPECIFIED', 'UNSPECIFIED', '' ) ;
#54 = EDGE_LOOP ( 'NONE', ( #52, #70, #135, #73 ) ) ;
#55 = CARTESIAN_POINT ( 'NONE',  ( 25.00000000000000000, 3.061616997868383000E-015, 6.000000000000000000 ) ) ;
#56 = CIRCLE ( 'NONE', #16, 25.00000000000000000 ) ;
#57 = APPROVAL_DATE_TIME ( #167, #131 ) ;
#58 = VERTEX_POINT ( 'NONE', #55 ) ;
#59 = PERSON_AND_ORGANIZATION ( #146, #53 ) ;
#60 = DIRECTION ( 'NONE',  ( 0.0000000000000000000, 0.0000000000000000000, 1.000000000000000000 ) ) ;
#61 = DATE_AND_TIME ( #32, #99 ) ;
#62 = DIRECTION ( 'NONE',  ( 1.000000000000000000, 0.0000000000000000000, 0.0000000000000000000 ) ) ;
#63 = CARTESIAN_POINT ( 'NONE',  ( 0.0000000000000000000, 0.0000000000000000000, 0.0000000000000000000 ) ) ;
#64 = CARTESIAN_POINT ( 'NONE',  ( 0.0000000000000000000, 0.0000000000000000000, 0.0000000000000000000 ) ) ;
#65 = ADVANCED_FACE ( 'NONE', ( #68 ), #51, .T. ) ;
#66 = EDGE_CURVE ( 'NONE', #169, #58, #9, .T. ) ;
#67 = CC_DESIGN_DATE_AND_TIME_ASSIGNMENT ( #82, #83, ( #151 ) ) ;
#68 = FACE_OUTER_BOUND ( 'NONE', #54, .T. ) ;
#69 = PRODUCT_DEFINITION ( 'UNKNOWN', '', #173, #21 ) ;
#70 = ORIENTED_EDGE ( 'NONE', *, *, #66, .F. ) ;
#71 = CARTESIAN_POINT ( 'NONE',  ( -25.00000000000000000, 0.0000000000000000000, 6.000000000000000000 ) ) ;
#72 =( LENGTH_UNIT ( ) NAMED_UNIT ( * ) SI_UNIT ( .MILLI., .METRE. ) );
#73 = ORIENTED_EDGE ( 'NONE', *, *, #76, .T. ) ;
#74 = DIRECTION ( 'NONE',  ( -0.0000000000000000000, -0.0000000000000000000, -1.000000000000000000 ) ) ;
#75 = MANIFOLD_SOLID_BREP ( 'Boss-Extrude1', #102 ) ;
#76 = EDGE_CURVE ( 'NONE', #78, #137, #13, .T. ) ;
#77 = DIRECTION ( 'NONE',  ( -0.0000000000000000000, -0.0000000000000000000, -1.000000000000000000 ) ) ;
#78 = VERTEX_POINT ( 'NONE', #30 ) ;
#79 = COORDINATED_UNIVERSAL_TIME_OFFSET ( 5, 0, .BEHIND. ) ;
#80 = APPROVAL_PERSON_ORGANIZATION ( #148, #131, #108 ) ;
#81 = AXIS2_PLACEMENT_3D ( 'NONE', #64, #92, #94 ) ;
#82 = DATE_AND_TIME ( #124, #29 ) ;
#83 = DATE_TIME_ROLE ( 'classification_date' ) ;
#84 = PRODUCT_RELATED_PRODUCT_CATEGORY ( 'detail', '', ( #86 ) ) ;
#85 = PERSON_AND_ORGANIZATION_ROLE ( 'design_owner' ) ;
#86 = PRODUCT ( '34430_37019', '34430_37019', '', ( #87 ) ) ;
#87 = MECHANICAL_CONTEXT ( 'NONE', #38, 'mechanical' ) ;
#88 = DIRECTION ( 'NONE',  ( 0.0000000000000000000, 0.0000000000000000000, 1.000000000000000000 ) ) ;
#89 = VECTOR ( 'NONE', #74, 1000.000000000000000 ) ;
#90 = COORDINATED_UNIVERSAL_TIME_OFFSET ( 5, 0, .BEHIND. ) ;
#91 = APPROVAL ( #2, 'UNSPECIFIED' ) ;
#92 = DIRECTION ( 'NONE',  ( 0.0000000000000000000, 0.0000000000000000000, 1.000000000000000000 ) ) ;
#93 = ADVANCED_FACE ( 'NONE', ( #95 ), #96, .T. ) ;
#94 = DIRECTION ( 'NONE',  ( 1.000000000000000000, 0.0000000000000000000, -0.0000000000000000000 ) ) ;
#95 = FACE_OUTER_BOUND ( 'NONE', #33, .T. ) ;
#96 = PLANE ( 'NONE',  #34 ) ;
#97 = EDGE_CURVE ( 'NONE', #58, #137, #150, .T. ) ;
#98 = COORDINATED_UNIVERSAL_TIME_OFFSET ( 5, 0, .BEHIND. ) ;
#99 = LOCAL_TIME ( 11, 51, 27.00000000000000000, #90 ) ;
#100 = EDGE_LOOP ( 'NONE', ( #152, #42, #141, #120 ) ) ;
#101 = PERSON_AND_ORGANIZATION ( #146, #53 ) ;
#102 = CLOSED_SHELL ( 'NONE', ( #20, #65, #93, #41 ) ) ;
#103 = DIRECTION ( 'NONE',  ( 0.0000000000000000000, 0.0000000000000000000, 1.000000000000000000 ) ) ;
#104 = CC_DESIGN_APPROVAL ( #91, ( #69 ) ) ;
#105 = CALENDAR_DATE ( 2017, 6, 9 ) ;
#106 = PERSON_AND_ORGANIZATION_ROLE ( 'creator' ) ;
#107 = DIRECTION ( 'NONE',  ( 1.000000000000000000, 0.0000000000000000000, -0.0000000000000000000 ) ) ;
#108 = APPROVAL_ROLE ( '' ) ;
#109 = DATE_AND_TIME ( #105, #19 ) ;
#110 = ORIENTED_EDGE ( 'NONE', *, *, #172, .T. ) ;
#111 = DIRECTION ( 'NONE',  ( -1.000000000000000000, 0.0000000000000000000, 0.0000000000000000000 ) ) ;
#112 =( GEOMETRIC_REPRESENTATION_CONTEXT ( 3 ) GLOBAL_UNCERTAINTY_ASSIGNED_CONTEXT ( ( #44 ) ) GLOBAL_UNIT_ASSIGNED_CONTEXT ( ( #72, #14, #119 ) ) REPRESENTATION_CONTEXT ( 'NONE', 'WORKASPACE' ) );
#113 = CC_DESIGN_PERSON_AND_ORGANIZATION_ASSIGNMENT ( #142, #106, ( #69 ) ) ;
#114 = APPROVAL_PERSON_ORGANIZATION ( #159, #149, #3 ) ;
#115 = AXIS2_PLACEMENT_3D ( 'NONE', #18, #155, #111 ) ;
#116 = PERSON_AND_ORGANIZATION_ROLE ( 'design_supplier' ) ;
#117 = APPROVAL_DATE_TIME ( #61, #149 ) ;
#118 = DIRECTION ( 'NONE',  ( 1.000000000000000000, 0.0000000000000000000, 0.0000000000000000000 ) ) ;
#119 =( NAMED_UNIT ( * ) SI_UNIT ( $, .STERADIAN. ) SOLID_ANGLE_UNIT ( ) );
#120 = ORIENTED_EDGE ( 'NONE', *, *, #128, .F. ) ;
#121 = CC_DESIGN_DATE_AND_TIME_ASSIGNMENT ( #109, #25, ( #69 ) ) ;
#122 = FACE_OUTER_BOUND ( 'NONE', #100, .T. ) ;
#123 = DIRECTION ( 'NONE',  ( 0.0000000000000000000, 0.0000000000000000000, 1.000000000000000000 ) ) ;
#124 = CALENDAR_DATE ( 2017, 6, 9 ) ;
#125 = CC_DESIGN_APPROVAL ( #131, ( #151 ) ) ;
#126 = VECTOR ( 'NONE', #50, 1000.000000000000000 ) ;
#127 = ORIENTED_EDGE ( 'NONE', *, *, #76, .F. ) ;
#128 = EDGE_CURVE ( 'NONE', #169, #78, #28, .T. ) ;
#129 = CC_DESIGN_PERSON_AND_ORGANIZATION_ASSIGNMENT ( #170, #116, ( #173 ) ) ;
#130 = CARTESIAN_POINT ( 'NONE',  ( 0.0000000000000000000, 0.0000000000000000000, 6.000000000000000000 ) ) ;
#131 = APPROVAL ( #15, 'UNSPECIFIED' ) ;
#132 = PERSON_AND_ORGANIZATION_ROLE ( 'classification_officer' ) ;
#133 = DIRECTION ( 'NONE',  ( 1.000000000000000000, 0.0000000000000000000, 0.0000000000000000000 ) ) ;
#134 = CARTESIAN_POINT ( 'NONE',  ( 25.00000000000000000, 3.061616997868383000E-015, 0.0000000000000000000 ) ) ;
#135 = ORIENTED_EDGE ( 'NONE', *, *, #128, .T. ) ;
#136 = AXIS2_PLACEMENT_3D ( 'NONE', #156, #123, #158 ) ;
#137 = VERTEX_POINT ( 'NONE', #134 ) ;
#138 = PRODUCT_DEFINITION_SHAPE ( 'NONE', 'NONE',  #69 ) ;
#139 = EDGE_LOOP ( 'NONE', ( #127, #154 ) ) ;
#140 = PERSON_AND_ORGANIZATION ( #146, #53 ) ;
#141 = ORIENTED_EDGE ( 'NONE', *, *, #157, .T. ) ;
#142 = PERSON_AND_ORGANIZATION ( #146, #53 ) ;
#143 = AXIS2_PLACEMENT_3D ( 'NONE', #24, #23, #43 ) ;
#144 = COORDINATED_UNIVERSAL_TIME_OFFSET ( 5, 0, .BEHIND. ) ;
#145 = SHAPE_DEFINITION_REPRESENTATION ( #138, #164 ) ;
#146 = PERSON ( 'UNSPECIFIED', 'UNSPECIFIED', 'UNSPECIFIED', ('UNSPECIFIED'), ('UNSPECIFIED'), ('UNSPECIFIED') ) ;
#147 = CARTESIAN_POINT ( 'NONE',  ( 0.0000000000000000000, 0.0000000000000000000, 0.0000000000000000000 ) ) ;
#148 = PERSON_AND_ORGANIZATION ( #146, #53 ) ;
#149 = APPROVAL ( #161, 'UNSPECIFIED' ) ;
#150 = LINE ( 'NONE', #165, #126 ) ;
#151 = SECURITY_CLASSIFICATION ( '', '', #36 ) ;
#152 = ORIENTED_EDGE ( 'NONE', *, *, #172, .F. ) ;
#153 = DATE_AND_TIME ( #5, #160 ) ;
#154 = ORIENTED_EDGE ( 'NONE', *, *, #157, .F. ) ;
#155 = DIRECTION ( 'NONE',  ( -0.0000000000000000000, -0.0000000000000000000, -1.000000000000000000 ) ) ;
#156 = CARTESIAN_POINT ( 'NONE',  ( 0.0000000000000000000, 0.0000000000000000000, 6.000000000000000000 ) ) ;
#157 = EDGE_CURVE ( 'NONE', #137, #78, #166, .T. ) ;
#158 = DIRECTION ( 'NONE',  ( 1.000000000000000000, 0.0000000000000000000, 0.0000000000000000000 ) ) ;
#159 = PERSON_AND_ORGANIZATION ( #146, #53 ) ;
#160 = LOCAL_TIME ( 11, 51, 27.00000000000000000, #48 ) ;
#161 = APPROVAL_STATUS ( 'not_yet_approved' ) ;
#162 = APPLICATION_PROTOCOL_DEFINITION ( 'international standard', 'config_control_design', 1994, #38 ) ;
#163 = CALENDAR_DATE ( 2017, 6, 9 ) ;
#164 = ADVANCED_BREP_SHAPE_REPRESENTATION ( '34430_37019', ( #75, #39 ), #112 ) ;
#165 = CARTESIAN_POINT ( 'NONE',  ( 25.00000000000000000, 3.061616997868383000E-015, 6.000000000000000000 ) ) ;
#166 = CIRCLE ( 'NONE', #168, 25.00000000000000000 ) ;
#167 = DATE_AND_TIME ( #163, #22 ) ;
#168 = AXIS2_PLACEMENT_3D ( 'NONE', #63, #26, #62 ) ;
#169 = VERTEX_POINT ( 'NONE', #71 ) ;
#170 = PERSON_AND_ORGANIZATION ( #146, #53 ) ;
#171 = APPROVAL_PERSON_ORGANIZATION ( #4, #91, #1 ) ;
#172 = EDGE_CURVE ( 'NONE', #58, #169, #56, .T. ) ;
#173 = PRODUCT_DEFINITION_FORMATION_WITH_SPECIFIED_SOURCE ( 'ANY', '', #86, .NOT_KNOWN. ) ;
#174 = CC_DESIGN_SECURITY_CLASSIFICATION ( #151, ( #173 ) ) ;
#175 = AXIS2_PLACEMENT_3D ( 'NONE', #31, #77, #10 ) ;
ENDSEC;
END-ISO-10303-21;
