ISO-10303-21;
HEADER;
FILE_DESCRIPTION (( 'STEP AP203' ),
    '1' );
FILE_NAME ('Web Model 46702.STEP',
    '2017-01-31T15:19:42',
    ( '' ),
    ( '' ),
    'SwSTEP 2.0',
    'SolidWorks 2016',
    '' );
FILE_SCHEMA (( 'CONFIG_CONTROL_DESIGN' ));
ENDSEC;

DATA;
#1 = AXIS2_PLACEMENT_3D ( 'NONE', #224, #162, #206 ) ;
#2 = ORIENTED_EDGE ( 'NONE', *, *, #125, .F. ) ;
#3 =( NAMED_UNIT ( * ) SI_UNIT ( $, .STERADIAN. ) SOLID_ANGLE_UNIT ( ) );
#4 = APPROVAL_DATE_TIME ( #179, #119 ) ;
#5 = LINE ( 'NONE', #106, #30 ) ;
#6 = EDGE_CURVE ( 'NONE', #166, #77, #5, .T. ) ;
#7 = PLANE ( 'NONE',  #143 ) ;
#8 = ORIENTED_EDGE ( 'NONE', *, *, #78, .T. ) ;
#9 = DIRECTION ( 'NONE',  ( 9.130123557772669600E-017, -1.000000000000000000, 0.0000000000000000000 ) ) ;
#10 = FACE_OUTER_BOUND ( 'NONE', #83, .T. ) ;
#11 = PERSON_AND_ORGANIZATION ( #21, #210 ) ;
#12 = VECTOR ( 'NONE', #229, 1000.000000000000000 ) ;
#13 = CC_DESIGN_PERSON_AND_ORGANIZATION_ASSIGNMENT ( #178, #49, ( #221 ) ) ;
#14 = ORIENTED_EDGE ( 'NONE', *, *, #126, .T. ) ;
#15 = APPROVAL_ROLE ( '' ) ;
#16 = CALENDAR_DATE ( 2017, 31, 1 ) ;
#17 = PERSON_AND_ORGANIZATION_ROLE ( 'design_supplier' ) ;
#18 = LINE ( 'NONE', #28, #211 ) ;
#19 = VERTEX_POINT ( 'NONE', #45 ) ;
#20 = PLANE ( 'NONE',  #223 ) ;
#21 = PERSON ( 'UNSPECIFIED', 'UNSPECIFIED', 'UNSPECIFIED', ('UNSPECIFIED'), ('UNSPECIFIED'), ('UNSPECIFIED') ) ;
#22 = ADVANCED_BREP_SHAPE_REPRESENTATION ( 'Web Model 46702', ( #120, #66 ), #110 ) ;
#23 = EDGE_CURVE ( 'NONE', #232, #19, #208, .T. ) ;
#24 = LOCAL_TIME ( 10, 19, 42.00000000000000000, #198 ) ;
#25 = APPROVAL_DATE_TIME ( #217, #230 ) ;
#26 = CARTESIAN_POINT ( 'NONE',  ( -12.49999999999999600, -19.00000000000000400, 1.500000000000000000 ) ) ;
#27 = CARTESIAN_POINT ( 'NONE',  ( -12.50000000000000000, 18.99999999999999600, 1.500000000000000000 ) ) ;
#28 = CARTESIAN_POINT ( 'NONE',  ( 12.49999999999999800, 18.99999999999999600, 1.500000000000000000 ) ) ;
#29 = CC_DESIGN_APPROVAL ( #230, ( #183 ) ) ;
#30 = VECTOR ( 'NONE', #167, 1000.000000000000000 ) ;
#31 = CC_DESIGN_PERSON_AND_ORGANIZATION_ASSIGNMENT ( #136, #233, ( #63 ) ) ;
#32 = VECTOR ( 'NONE', #134, 1000.000000000000000 ) ;
#33 = EDGE_LOOP ( 'NONE', ( #97, #147, #2, #14 ) ) ;
#34 = SECURITY_CLASSIFICATION_LEVEL ( 'unclassified' ) ;
#35 = DIRECTION ( 'NONE',  ( 1.000000000000000000, 0.0000000000000000000, 0.0000000000000000000 ) ) ;
#36 = ORIENTED_EDGE ( 'NONE', *, *, #78, .F. ) ;
#37 = DIRECTION ( 'NONE',  ( 1.000000000000000000, 0.0000000000000000000, 0.0000000000000000000 ) ) ;
#38 = UNCERTAINTY_MEASURE_WITH_UNIT (LENGTH_MEASURE( 1.000000000000000100E-005 ), #128, 'distance_accuracy_value', 'NONE');
#39 = ORIENTED_EDGE ( 'NONE', *, *, #23, .T. ) ;
#40 = EDGE_CURVE ( 'NONE', #166, #102, #18, .T. ) ;
#41 = DIRECTION ( 'NONE',  ( 0.0000000000000000000, 1.000000000000000000, 0.0000000000000000000 ) ) ;
#42 = DIRECTION ( 'NONE',  ( 0.0000000000000000000, -0.0000000000000000000, 1.000000000000000000 ) ) ;
#43 = VECTOR ( 'NONE', #180, 1000.000000000000000 ) ;
#44 = VERTEX_POINT ( 'NONE', #108 ) ;
#45 = CARTESIAN_POINT ( 'NONE',  ( 12.50000000000000400, -19.00000000000000400, 0.0000000000000000000 ) ) ;
#46 = CARTESIAN_POINT ( 'NONE',  ( -12.50000000000000000, 18.99999999999999600, 1.500000000000000000 ) ) ;
#47 = APPROVAL_DATE_TIME ( #61, #133 ) ;
#48 = EDGE_LOOP ( 'NONE', ( #88, #124, #137, #8 ) ) ;
#49 = PERSON_AND_ORGANIZATION_ROLE ( 'design_owner' ) ;
#50 = CALENDAR_DATE ( 2017, 31, 1 ) ;
#51 = APPROVAL_ROLE ( '' ) ;
#52 = ADVANCED_FACE ( 'NONE', ( #101 ), #84, .F. ) ;
#53 = DATE_AND_TIME ( #59, #216 ) ;
#54 = EDGE_CURVE ( 'NONE', #184, #232, #218, .T. ) ;
#55 = EDGE_LOOP ( 'NONE', ( #200, #62, #209, #121 ) ) ;
#56 = CARTESIAN_POINT ( 'NONE',  ( -12.49999999999999600, -19.00000000000000400, 1.500000000000000000 ) ) ;
#57 = VECTOR ( 'NONE', #98, 1000.000000000000000 ) ;
#58 = CARTESIAN_POINT ( 'NONE',  ( -12.50000000000000000, 18.99999999999999600, 0.0000000000000000000 ) ) ;
#59 = CALENDAR_DATE ( 2017, 31, 1 ) ;
#60 = LINE ( 'NONE', #95, #92 ) ;
#61 = DATE_AND_TIME ( #16, #131 ) ;
#62 = ORIENTED_EDGE ( 'NONE', *, *, #94, .F. ) ;
#63 = PRODUCT_DEFINITION_FORMATION_WITH_SPECIFIED_SOURCE ( 'ANY', '', #221, .NOT_KNOWN. ) ;
#64 = DIRECTION ( 'NONE',  ( -0.0000000000000000000, 0.0000000000000000000, 1.000000000000000000 ) ) ;
#65 = ORIENTED_EDGE ( 'NONE', *, *, #192, .F. ) ;
#66 = AXIS2_PLACEMENT_3D ( 'NONE', #186, #172, #237 ) ;
#67 = DIRECTION ( 'NONE',  ( -1.369518533665900300E-016, 1.000000000000000000, -0.0000000000000000000 ) ) ;
#68 = DIRECTION ( 'NONE',  ( 1.369518533665900100E-016, -1.000000000000000000, 0.0000000000000000000 ) ) ;
#69 = VECTOR ( 'NONE', #9, 1000.000000000000000 ) ;
#70 = PERSON_AND_ORGANIZATION ( #21, #210 ) ;
#71 = ORIENTED_EDGE ( 'NONE', *, *, #89, .F. ) ;
#72 = DATE_AND_TIME ( #159, #24 ) ;
#73 = APPROVAL_STATUS ( 'not_yet_approved' ) ;
#74 = AXIS2_PLACEMENT_3D ( 'NONE', #196, #82, #68 ) ;
#75 = PERSON_AND_ORGANIZATION ( #21, #210 ) ;
#76 = PLANE ( 'NONE',  #1 ) ;
#77 = VERTEX_POINT ( 'NONE', #27 ) ;
#78 = EDGE_CURVE ( 'NONE', #44, #142, #181, .T. ) ;
#79 = CARTESIAN_POINT ( 'NONE',  ( 12.49999999999999800, 18.99999999999999600, 0.0000000000000000000 ) ) ;
#80 = CC_DESIGN_APPROVAL ( #119, ( #63 ) ) ;
#81 = CALENDAR_DATE ( 2017, 31, 1 ) ;
#82 = DIRECTION ( 'NONE',  ( -1.000000000000000000, -1.369518533665900100E-016, 0.0000000000000000000 ) ) ;
#83 = EDGE_LOOP ( 'NONE', ( #226, #65, #109, #205 ) ) ;
#84 = PLANE ( 'NONE',  #111 ) ;
#85 = DIRECTION ( 'NONE',  ( 0.0000000000000000000, -0.0000000000000000000, -1.000000000000000000 ) ) ;
#86 = EDGE_LOOP ( 'NONE', ( #161, #170, #182, #71 ) ) ;
#87 = FACE_OUTER_BOUND ( 'NONE', #33, .T. ) ;
#88 = ORIENTED_EDGE ( 'NONE', *, *, #125, .T. ) ;
#89 = EDGE_CURVE ( 'NONE', #102, #184, #231, .T. ) ;
#90 = PERSON_AND_ORGANIZATION_ROLE ( 'classification_officer' ) ;
#91 = ADVANCED_FACE ( 'NONE', ( #87 ), #197, .F. ) ;
#92 = VECTOR ( 'NONE', #146, 1000.000000000000000 ) ;
#93 = AXIS2_PLACEMENT_3D ( 'NONE', #127, #41, #42 ) ;
#94 = EDGE_CURVE ( 'NONE', #77, #184, #154, .T. ) ;
#95 = CARTESIAN_POINT ( 'NONE',  ( 12.50000000000000400, -19.00000000000000400, 1.500000000000000000 ) ) ;
#96 = PRODUCT_DEFINITION_SHAPE ( 'NONE', 'NONE',  #183 ) ;
#97 = ORIENTED_EDGE ( 'NONE', *, *, #213, .T. ) ;
#98 = DIRECTION ( 'NONE',  ( -1.369518533665900300E-016, 1.000000000000000000, -0.0000000000000000000 ) ) ;
#99 = COORDINATED_UNIVERSAL_TIME_OFFSET ( 5, 0, .BEHIND. ) ;
#100 = COORDINATED_UNIVERSAL_TIME_OFFSET ( 5, 0, .BEHIND. ) ;
#101 = FACE_OUTER_BOUND ( 'NONE', #55, .T. ) ;
#102 = VERTEX_POINT ( 'NONE', #156 ) ;
#103 = DIRECTION ( 'NONE',  ( -1.000000000000000000, -0.0000000000000000000, -0.0000000000000000000 ) ) ;
#104 = LINE ( 'NONE', #191, #214 ) ;
#105 = FACE_OUTER_BOUND ( 'NONE', #113, .T. ) ;
#106 = CARTESIAN_POINT ( 'NONE',  ( -12.50000000000000000, 18.99999999999999600, 1.500000000000000000 ) ) ;
#107 = LOCAL_TIME ( 10, 19, 42.00000000000000000, #145 ) ;
#108 = CARTESIAN_POINT ( 'NONE',  ( -12.49999999999999600, -19.00000000000000400, 1.500000000000000000 ) ) ;
#109 = ORIENTED_EDGE ( 'NONE', *, *, #212, .F. ) ;
#110 =( GEOMETRIC_REPRESENTATION_CONTEXT ( 3 ) GLOBAL_UNCERTAINTY_ASSIGNED_CONTEXT ( ( #38 ) ) GLOBAL_UNIT_ASSIGNED_CONTEXT ( ( #128, #219, #3 ) ) REPRESENTATION_CONTEXT ( 'NONE', 'WORKASPACE' ) );
#111 = AXIS2_PLACEMENT_3D ( 'NONE', #46, #199, #85 ) ;
#112 = CC_DESIGN_PERSON_AND_ORGANIZATION_ASSIGNMENT ( #75, #90, ( #169 ) ) ;
#113 = EDGE_LOOP ( 'NONE', ( #39, #155, #36, #190 ) ) ;
#114 = PERSON_AND_ORGANIZATION ( #21, #210 ) ;
#115 = APPROVAL_STATUS ( 'not_yet_approved' ) ;
#116 = APPROVAL_PERSON_ORGANIZATION ( #11, #133, #118 ) ;
#117 = APPLICATION_CONTEXT ( 'configuration controlled 3d designs of mechanical parts and assemblies' ) ;
#118 = APPROVAL_ROLE ( '' ) ;
#119 = APPROVAL ( #115, 'UNSPECIFIED' ) ;
#120 = MANIFOLD_SOLID_BREP ( 'Extrude1', #195 ) ;
#121 = ORIENTED_EDGE ( 'NONE', *, *, #40, .T. ) ;
#122 = LINE ( 'NONE', #79, #57 ) ;
#123 = VECTOR ( 'NONE', #165, 1000.000000000000000 ) ;
#124 = ORIENTED_EDGE ( 'NONE', *, *, #6, .T. ) ;
#125 = EDGE_CURVE ( 'NONE', #142, #166, #130, .T. ) ;
#126 = EDGE_CURVE ( 'NONE', #142, #19, #60, .T. ) ;
#127 = CARTESIAN_POINT ( 'NONE',  ( -12.49999999999999600, -19.00000000000000400, 1.500000000000000000 ) ) ;
#128 =( LENGTH_UNIT ( ) NAMED_UNIT ( * ) SI_UNIT ( .MILLI., .METRE. ) );
#129 = PRODUCT_RELATED_PRODUCT_CATEGORY ( 'detail', '', ( #221 ) ) ;
#130 = LINE ( 'NONE', #138, #207 ) ;
#131 = LOCAL_TIME ( 10, 19, 42.00000000000000000, #99 ) ;
#132 = CARTESIAN_POINT ( 'NONE',  ( -12.49999999999999600, -19.00000000000000400, 0.0000000000000000000 ) ) ;
#133 = APPROVAL ( #236, 'UNSPECIFIED' ) ;
#134 = DIRECTION ( 'NONE',  ( -0.0000000000000000000, -0.0000000000000000000, -1.000000000000000000 ) ) ;
#135 = FACE_OUTER_BOUND ( 'NONE', #86, .T. ) ;
#136 = PERSON_AND_ORGANIZATION ( #21, #210 ) ;
#137 = ORIENTED_EDGE ( 'NONE', *, *, #212, .T. ) ;
#138 = CARTESIAN_POINT ( 'NONE',  ( 12.49999999999999800, 18.99999999999999600, 1.500000000000000000 ) ) ;
#139 = APPLICATION_PROTOCOL_DEFINITION ( 'international standard', 'config_control_design', 1994, #117 ) ;
#140 = ADVANCED_FACE ( 'NONE', ( #105 ), #222, .F. ) ;
#141 = ADVANCED_FACE ( 'NONE', ( #187 ), #7, .T. ) ;
#142 = VERTEX_POINT ( 'NONE', #149 ) ;
#143 = AXIS2_PLACEMENT_3D ( 'NONE', #163, #64, #35 ) ;
#144 = CC_DESIGN_PERSON_AND_ORGANIZATION_ASSIGNMENT ( #194, #185, ( #183 ) ) ;
#145 = COORDINATED_UNIVERSAL_TIME_OFFSET ( 5, 0, .BEHIND. ) ;
#146 = DIRECTION ( 'NONE',  ( -0.0000000000000000000, -0.0000000000000000000, -1.000000000000000000 ) ) ;
#147 = ORIENTED_EDGE ( 'NONE', *, *, #40, .F. ) ;
#148 = CC_DESIGN_DATE_AND_TIME_ASSIGNMENT ( #53, #158, ( #183 ) ) ;
#149 = CARTESIAN_POINT ( 'NONE',  ( 12.50000000000000400, -19.00000000000000400, 1.500000000000000000 ) ) ;
#150 = CARTESIAN_POINT ( 'NONE',  ( 12.49999999999999800, 18.99999999999999600, 1.500000000000000000 ) ) ;
#151 = APPROVAL_PERSON_ORGANIZATION ( #70, #119, #15 ) ;
#152 = CARTESIAN_POINT ( 'NONE',  ( -12.50000000000000000, 18.99999999999999600, 1.500000000000000000 ) ) ;
#153 = CC_DESIGN_DATE_AND_TIME_ASSIGNMENT ( #72, #203, ( #169 ) ) ;
#154 = LINE ( 'NONE', #152, #32 ) ;
#155 = ORIENTED_EDGE ( 'NONE', *, *, #126, .F. ) ;
#156 = CARTESIAN_POINT ( 'NONE',  ( 12.49999999999999800, 18.99999999999999600, 0.0000000000000000000 ) ) ;
#157 = COORDINATED_UNIVERSAL_TIME_OFFSET ( 5, 0, .BEHIND. ) ;
#158 = DATE_TIME_ROLE ( 'creation_date' ) ;
#159 = CALENDAR_DATE ( 2017, 31, 1 ) ;
#160 = CC_DESIGN_PERSON_AND_ORGANIZATION_ASSIGNMENT ( #164, #17, ( #63 ) ) ;
#161 = ORIENTED_EDGE ( 'NONE', *, *, #213, .F. ) ;
#162 = DIRECTION ( 'NONE',  ( 1.000000000000000000, 9.130123557772669600E-017, -0.0000000000000000000 ) ) ;
#163 = CARTESIAN_POINT ( 'NONE',  ( 12.50000000000000400, -19.00000000000000400, 1.500000000000000000 ) ) ;
#164 = PERSON_AND_ORGANIZATION ( #21, #210 ) ;
#165 = DIRECTION ( 'NONE',  ( -0.0000000000000000000, -0.0000000000000000000, -1.000000000000000000 ) ) ;
#166 = VERTEX_POINT ( 'NONE', #150 ) ;
#167 = DIRECTION ( 'NONE',  ( -1.000000000000000000, -0.0000000000000000000, -0.0000000000000000000 ) ) ;
#168 = CARTESIAN_POINT ( 'NONE',  ( -12.50000000000000000, 18.99999999999999600, 0.0000000000000000000 ) ) ;
#169 = SECURITY_CLASSIFICATION ( '', '', #34 ) ;
#170 = ORIENTED_EDGE ( 'NONE', *, *, #23, .F. ) ;
#171 = MECHANICAL_CONTEXT ( 'NONE', #215, 'mechanical' ) ;
#172 = DIRECTION ( 'NONE',  ( 0.0000000000000000000, 0.0000000000000000000, 1.000000000000000000 ) ) ;
#173 = CARTESIAN_POINT ( 'NONE',  ( -12.49999999999999600, -19.00000000000000400, 0.0000000000000000000 ) ) ;
#174 = DIRECTION ( 'NONE',  ( -0.0000000000000000000, 0.0000000000000000000, 1.000000000000000000 ) ) ;
#175 = DESIGN_CONTEXT ( 'detailed design', #117, 'design' ) ;
#176 = CC_DESIGN_APPROVAL ( #133, ( #169 ) ) ;
#177 = CARTESIAN_POINT ( 'NONE',  ( 12.50000000000000400, -19.00000000000000400, 0.0000000000000000000 ) ) ;
#178 = PERSON_AND_ORGANIZATION ( #21, #210 ) ;
#179 = DATE_AND_TIME ( #50, #107 ) ;
#180 = DIRECTION ( 'NONE',  ( 1.000000000000000000, 0.0000000000000000000, 0.0000000000000000000 ) ) ;
#181 = LINE ( 'NONE', #26, #43 ) ;
#182 = ORIENTED_EDGE ( 'NONE', *, *, #54, .F. ) ;
#183 = PRODUCT_DEFINITION ( 'UNKNOWN', '', #63, #175 ) ;
#184 = VERTEX_POINT ( 'NONE', #58 ) ;
#185 = PERSON_AND_ORGANIZATION_ROLE ( 'creator' ) ;
#186 = CARTESIAN_POINT ( 'NONE',  ( 0.0000000000000000000, 0.0000000000000000000, 0.0000000000000000000 ) ) ;
#187 = FACE_OUTER_BOUND ( 'NONE', #48, .T. ) ;
#188 = CC_DESIGN_SECURITY_CLASSIFICATION ( #169, ( #63 ) ) ;
#189 = VECTOR ( 'NONE', #103, 1000.000000000000000 ) ;
#190 = ORIENTED_EDGE ( 'NONE', *, *, #192, .T. ) ;
#191 = CARTESIAN_POINT ( 'NONE',  ( -12.50000000000000000, 18.99999999999999600, 1.500000000000000000 ) ) ;
#192 = EDGE_CURVE ( 'NONE', #44, #232, #220, .T. ) ;
#193 = DIRECTION ( 'NONE',  ( 9.130123557772669600E-017, -1.000000000000000000, 0.0000000000000000000 ) ) ;
#194 = PERSON_AND_ORGANIZATION ( #21, #210 ) ;
#195 = CLOSED_SHELL ( 'NONE', ( #91, #52, #235, #140, #141, #204 ) ) ;
#196 = CARTESIAN_POINT ( 'NONE',  ( 12.49999999999999800, 18.99999999999999600, 1.500000000000000000 ) ) ;
#197 = PLANE ( 'NONE',  #74 ) ;
#198 = COORDINATED_UNIVERSAL_TIME_OFFSET ( 5, 0, .BEHIND. ) ;
#199 = DIRECTION ( 'NONE',  ( 0.0000000000000000000, -1.000000000000000000, 0.0000000000000000000 ) ) ;
#200 = ORIENTED_EDGE ( 'NONE', *, *, #89, .T. ) ;
#201 = APPROVAL_PERSON_ORGANIZATION ( #114, #230, #51 ) ;
#202 = APPLICATION_PROTOCOL_DEFINITION ( 'international standard', 'config_control_design', 1994, #215 ) ;
#203 = DATE_TIME_ROLE ( 'classification_date' ) ;
#204 = ADVANCED_FACE ( 'NONE', ( #135 ), #20, .F. ) ;
#205 = ORIENTED_EDGE ( 'NONE', *, *, #94, .T. ) ;
#206 = DIRECTION ( 'NONE',  ( -9.130123557772669600E-017, 1.000000000000000000, 0.0000000000000000000 ) ) ;
#207 = VECTOR ( 'NONE', #67, 1000.000000000000000 ) ;
#208 = LINE ( 'NONE', #132, #12 ) ;
#209 = ORIENTED_EDGE ( 'NONE', *, *, #6, .F. ) ;
#210 = ORGANIZATION ( 'UNSPECIFIED', 'UNSPECIFIED', '' ) ;
#211 = VECTOR ( 'NONE', #225, 1000.000000000000000 ) ;
#212 = EDGE_CURVE ( 'NONE', #77, #44, #104, .T. ) ;
#213 = EDGE_CURVE ( 'NONE', #19, #102, #122, .T. ) ;
#214 = VECTOR ( 'NONE', #193, 1000.000000000000000 ) ;
#215 = APPLICATION_CONTEXT ( 'configuration controlled 3d designs of mechanical parts and assemblies' ) ;
#216 = LOCAL_TIME ( 10, 19, 42.00000000000000000, #100 ) ;
#217 = DATE_AND_TIME ( #81, #228 ) ;
#218 = LINE ( 'NONE', #168, #69 ) ;
#219 =( NAMED_UNIT ( * ) PLANE_ANGLE_UNIT ( ) SI_UNIT ( $, .RADIAN. ) );
#220 = LINE ( 'NONE', #56, #123 ) ;
#221 = PRODUCT ( 'Web Model 46702', 'Web Model 46702', '', ( #171 ) ) ;
#222 = PLANE ( 'NONE',  #93 ) ;
#223 = AXIS2_PLACEMENT_3D ( 'NONE', #177, #174, #37 ) ;
#224 = CARTESIAN_POINT ( 'NONE',  ( -12.50000000000000000, 18.99999999999999600, 1.500000000000000000 ) ) ;
#225 = DIRECTION ( 'NONE',  ( -0.0000000000000000000, -0.0000000000000000000, -1.000000000000000000 ) ) ;
#226 = ORIENTED_EDGE ( 'NONE', *, *, #54, .T. ) ;
#227 = CARTESIAN_POINT ( 'NONE',  ( -12.50000000000000000, 18.99999999999999600, 0.0000000000000000000 ) ) ;
#228 = LOCAL_TIME ( 10, 19, 42.00000000000000000, #157 ) ;
#229 = DIRECTION ( 'NONE',  ( 1.000000000000000000, 0.0000000000000000000, 0.0000000000000000000 ) ) ;
#230 = APPROVAL ( #73, 'UNSPECIFIED' ) ;
#231 = LINE ( 'NONE', #227, #189 ) ;
#232 = VERTEX_POINT ( 'NONE', #173 ) ;
#233 = PERSON_AND_ORGANIZATION_ROLE ( 'creator' ) ;
#234 = SHAPE_DEFINITION_REPRESENTATION ( #96, #22 ) ;
#235 = ADVANCED_FACE ( 'NONE', ( #10 ), #76, .F. ) ;
#236 = APPROVAL_STATUS ( 'not_yet_approved' ) ;
#237 = DIRECTION ( 'NONE',  ( 1.000000000000000000, 0.0000000000000000000, 0.0000000000000000000 ) ) ;
ENDSEC;
END-ISO-10303-21;
