ISO-10303-21;
HEADER;
FILE_DESCRIPTION (( 'STEP AP214' ),
    '1' );
FILE_NAME ('3471-E0W.STEP',
    '2009-12-21T17:00:11',
    ( ' ' ),
    ( ' ' ),
    'SwSTEP 2.0',
    'SolidWorks 2009',
    '' );
FILE_SCHEMA (( 'AUTOMOTIVE_DESIGN' ));
ENDSEC;

DATA;
#1 = DIRECTION ( 'NONE',  ( 1.000000000000000000, 0.0000000000000000000, 0.0000000000000000000 ) ) ;
#2 =( LENGTH_UNIT ( ) NAMED_UNIT ( * ) SI_UNIT ( .MILLI., .METRE. ) );
#3 =( NAMED_UNIT ( * ) SI_UNIT ( $, .STERADIAN. ) SOLID_ANGLE_UNIT ( ) );
#4 = UNCERTAINTY_MEASURE_WITH_UNIT (LENGTH_MEASURE( 1.000000000000000100E-005 ), #93, 'distance_accuracy_value', 'NONE');
#5 =( NAMED_UNIT ( * ) PLANE_ANGLE_UNIT ( ) SI_UNIT ( $, .RADIAN. ) );
#6 = DIRECTION ( 'NONE',  ( -0.0000000000000000000, -0.0000000000000000000, 1.000000000000000000 ) ) ;
#7 =( GEOMETRIC_REPRESENTATION_CONTEXT ( 3 ) GLOBAL_UNCERTAINTY_ASSIGNED_CONTEXT ( ( #4 ) ) GLOBAL_UNIT_ASSIGNED_CONTEXT ( ( #93, #5, #3 ) ) REPRESENTATION_CONTEXT ( 'NONE', 'WORKASPACE' ) );
#8 = DIRECTION ( 'NONE',  ( 1.000000000000000000, 0.0000000000000000000, 0.0000000000000000000 ) ) ;
#9 =( NAMED_UNIT ( * ) PLANE_ANGLE_UNIT ( ) SI_UNIT ( $, .RADIAN. ) );
#10 = CIRCLE ( 'NONE', #11, 12.70000000000000100 ) ;
#11 = AXIS2_PLACEMENT_3D ( 'NONE', #13, #12, #8 ) ;
#12 = DIRECTION ( 'NONE',  ( -0.0000000000000000000, -0.0000000000000000000, 1.000000000000000000 ) ) ;
#13 = CARTESIAN_POINT ( 'NONE',  ( 0.0000000000000000000, 0.0000000000000000000, -2.744302807640479200 ) ) ;
#14 =( NAMED_UNIT ( * ) SI_UNIT ( $, .STERADIAN. ) SOLID_ANGLE_UNIT ( ) );
#15 = EDGE_CURVE ( 'NONE', #98, #43, #86, .T. ) ;
#16 = ADVANCED_FACE ( 'NONE', ( #87 ), #114, .T. ) ;
#17 = ORIENTED_EDGE ( 'NONE', *, *, #82, .F. ) ;
#18 = ORIENTED_EDGE ( 'NONE', *, *, #27, .F. ) ;
#19 = ORIENTED_EDGE ( 'NONE', *, *, #67, .F. ) ;
#20 = CLOSED_SHELL ( 'NONE', ( #84, #91, #35, #16, #79, #44 ) ) ;
#21 = ORIENTED_EDGE ( 'NONE', *, *, #71, .F. ) ;
#22 = ORIENTED_EDGE ( 'NONE', *, *, #15, .T. ) ;
#23 = ORIENTED_EDGE ( 'NONE', *, *, #88, .F. ) ;
#24 = ORIENTED_EDGE ( 'NONE', *, *, #67, .T. ) ;
#25 = ORIENTED_EDGE ( 'NONE', *, *, #32, .T. ) ;
#26 = ORIENTED_EDGE ( 'NONE', *, *, #41, .T. ) ;
#27 = EDGE_CURVE ( 'NONE', #28, #83, #102, .T. ) ;
#28 = VERTEX_POINT ( 'NONE', #108 ) ;
#29 = ORIENTED_EDGE ( 'NONE', *, *, #34, .T. ) ;
#30 = VERTEX_POINT ( 'NONE', #107 ) ;
#31 = ORIENTED_EDGE ( 'NONE', *, *, #75, .F. ) ;
#32 = EDGE_CURVE ( 'NONE', #30, #65, #106, .T. ) ;
#33 = ORIENTED_EDGE ( 'NONE', *, *, #32, .F. ) ;
#34 = EDGE_CURVE ( 'NONE', #98, #55, #117, .T. ) ;
#35 = ADVANCED_FACE ( 'NONE', ( #174 ), #184, .T. ) ;
#36 = EDGE_LOOP ( 'NONE', ( #19, #74, #99, #31 ) ) ;
#37 = EDGE_LOOP ( 'NONE', ( #17, #38, #26, #80 ) ) ;
#38 = ORIENTED_EDGE ( 'NONE', *, *, #39, .T. ) ;
#39 = EDGE_CURVE ( 'NONE', #66, #65, #133, .T. ) ;
#40 = ORIENTED_EDGE ( 'NONE', *, *, #56, .T. ) ;
#41 = EDGE_CURVE ( 'NONE', #65, #28, #138, .T. ) ;
#42 = ORIENTED_EDGE ( 'NONE', *, *, #53, .F. ) ;
#43 = VERTEX_POINT ( 'NONE', #123 ) ;
#44 = ADVANCED_FACE ( 'NONE', ( #122 ), #156, .F. ) ;
#45 = ORIENTED_EDGE ( 'NONE', *, *, #76, .F. ) ;
#46 = EDGE_LOOP ( 'NONE', ( #69, #70, #24, #25, #72, #45 ) ) ;
#47 = FILL_AREA_STYLE_COLOUR ( '', #48 ) ;
#48 = COLOUR_RGB ( '',0.9568627450980391500, 0.9490196078431372100, 0.9607843137254902200 ) ;
#49 = DIRECTION ( 'NONE',  ( 0.0000000000000000000, 0.0000000000000000000, -1.000000000000000000 ) ) ;
#50 = DIRECTION ( 'NONE',  ( 1.000000000000000000, -0.0000000000000000000, 0.0000000000000000000 ) ) ;
#51 = CARTESIAN_POINT ( 'NONE',  ( 0.0000000000000000000, 0.0000000000000000000, -33.90569719235953300 ) ) ;
#52 = VERTEX_POINT ( 'NONE', #164 ) ;
#53 = EDGE_CURVE ( 'NONE', #28, #52, #163, .T. ) ;
#54 = EDGE_LOOP ( 'NONE', ( #78, #64, #81, #18 ) ) ;
#55 = VERTEX_POINT ( 'NONE', #169 ) ;
#56 = EDGE_CURVE ( 'NONE', #55, #52, #127, .T. ) ;
#57 = PRESENTATION_STYLE_ASSIGNMENT (( #58 ) ) ;
#58 = SURFACE_STYLE_USAGE ( .BOTH. , #59 ) ;
#59 = SURFACE_SIDE_STYLE ('',( #60 ) ) ;
#60 = SURFACE_STYLE_FILL_AREA ( #61 ) ;
#61 = FILL_AREA_STYLE ('',( #47 ) ) ;
#62 = EDGE_LOOP ( 'NONE', ( #23, #21, #89, #22 ) ) ;
#63 = EDGE_LOOP ( 'NONE', ( #97, #29, #40, #42, #77, #33 ) ) ;
#64 = ORIENTED_EDGE ( 'NONE', *, *, #76, .T. ) ;
#65 = VERTEX_POINT ( 'NONE', #155 ) ;
#66 = VERTEX_POINT ( 'NONE', #154 ) ;
#67 = EDGE_CURVE ( 'NONE', #73, #30, #10, .T. ) ;
#68 =( NAMED_UNIT ( * ) PLANE_ANGLE_UNIT ( ) SI_UNIT ( $, .RADIAN. ) );
#69 = ORIENTED_EDGE ( 'NONE', *, *, #56, .F. ) ;
#70 = ORIENTED_EDGE ( 'NONE', *, *, #71, .T. ) ;
#71 = EDGE_CURVE ( 'NONE', #55, #73, #208, .T. ) ;
#72 = ORIENTED_EDGE ( 'NONE', *, *, #39, .F. ) ;
#73 = VERTEX_POINT ( 'NONE', #237 ) ;
#74 = ORIENTED_EDGE ( 'NONE', *, *, #88, .T. ) ;
#75 = EDGE_CURVE ( 'NONE', #30, #98, #221, .T. ) ;
#76 = EDGE_CURVE ( 'NONE', #52, #66, #263, .T. ) ;
#77 = ORIENTED_EDGE ( 'NONE', *, *, #41, .F. ) ;
#78 = ORIENTED_EDGE ( 'NONE', *, *, #53, .T. ) ;
#79 = ADVANCED_FACE ( 'NONE', ( #253 ), #261, .T. ) ;
#80 = ORIENTED_EDGE ( 'NONE', *, *, #27, .T. ) ;
#81 = ORIENTED_EDGE ( 'NONE', *, *, #82, .T. ) ;
#82 = EDGE_CURVE ( 'NONE', #66, #83, #255, .T. ) ;
#83 = VERTEX_POINT ( 'NONE', #244 ) ;
#84 = ADVANCED_FACE ( 'NONE', ( #243 ), #242, .F. ) ;
#85 = AXIS2_PLACEMENT_3D ( 'NONE', #51, #50, #49 ) ;
#86 = CIRCLE ( 'NONE', #85, 33.64999999999999900 ) ;
#87 = FACE_OUTER_BOUND ( 'NONE', #37, .T. ) ;
#88 = EDGE_CURVE ( 'NONE', #73, #43, #228, .T. ) ;
#89 = ORIENTED_EDGE ( 'NONE', *, *, #34, .F. ) ;
#90 =( NAMED_UNIT ( * ) SI_UNIT ( $, .STERADIAN. ) SOLID_ANGLE_UNIT ( ) );
#91 = ADVANCED_FACE ( 'NONE', ( #223 ), #274, .T. ) ;
#92 = MANIFOLD_SOLID_BREP ( 'NONE', #20 ) ;
#93 =( LENGTH_UNIT ( ) NAMED_UNIT ( * ) SI_UNIT ( .MILLI., .METRE. ) );
#94 = MECHANICAL_DESIGN_GEOMETRIC_PRESENTATION_REPRESENTATION (  '', ( #96 ), #7 ) ;
#95 = PRESENTATION_LAYER_ASSIGNMENT (  '', '', ( #96 ) ) ;
#96 = STYLED_ITEM ( 'NONE', ( #57 ), #16 ) ;
#97 = ORIENTED_EDGE ( 'NONE', *, *, #75, .T. ) ;
#98 = VERTEX_POINT ( 'NONE', #277 ) ;
#99 = ORIENTED_EDGE ( 'NONE', *, *, #15, .F. ) ;
#100 = DIRECTION ( 'NONE',  ( -1.000000000000000000, 0.0000000000000000000, 0.0000000000000000000 ) ) ;
#101 = AXIS2_PLACEMENT_3D ( 'NONE', #113, #100, #103 ) ;
#102 = CIRCLE ( 'NONE', #112, 100.0000000000000000 ) ;
#103 = DIRECTION ( 'NONE',  ( 0.0000000000000000000, 1.000000000000000000, 0.0000000000000000000 ) ) ;
#104 = VECTOR ( 'NONE', #119, 1000.000000000000000 ) ;
#105 = CARTESIAN_POINT ( 'NONE',  ( 12.70000000000000100, 0.0000000000000000000, 10.14940656248153400 ) ) ;
#106 = LINE ( 'NONE', #105, #104 ) ;
#107 = CARTESIAN_POINT ( 'NONE',  ( 12.70000000000000100, 0.0000000000000000000, -2.744302807640479200 ) ) ;
#108 = CARTESIAN_POINT ( 'NONE',  ( 0.0000000000000000000, 12.69999999999999200, 1.934574508044653700 ) ) ;
#109 = DIRECTION ( 'NONE',  ( 0.0000000000000000000, 0.0000000000000000000, -1.000000000000000000 ) ) ;
#110 = DIRECTION ( 'NONE',  ( 1.000000000000000000, 0.0000000000000000000, 0.0000000000000000000 ) ) ;
#111 = CARTESIAN_POINT ( 'NONE',  ( 0.0000000000000000000, 0.0000000000000000000, -97.25569719235952000 ) ) ;
#112 = AXIS2_PLACEMENT_3D ( 'NONE', #111, #110, #109 ) ;
#113 = CARTESIAN_POINT ( 'NONE',  ( 0.0000000000000000000, 0.0000000000000000000, -97.25569719235952000 ) ) ;
#114 = SPHERICAL_SURFACE ( 'NONE', #101, 100.0000000000000000 ) ;
#115 = CARTESIAN_POINT ( 'NONE',  ( 0.0000000000000000000, 0.0000000000000000000, -2.744302807640479200 ) ) ;
#116 = AXIS2_PLACEMENT_3D ( 'NONE', #115, #6, #1 ) ;
#117 = CIRCLE ( 'NONE', #116, 12.70000000000000100 ) ;
#118 = UNCERTAINTY_MEASURE_WITH_UNIT (LENGTH_MEASURE( 1.000000000000000100E-005 ), #2, 'distance_accuracy_value', 'NONE');
#119 = DIRECTION ( 'NONE',  ( -0.0000000000000000000, -0.0000000000000000000, 1.000000000000000000 ) ) ;
#120 = FILL_AREA_STYLE_COLOUR ( '', #121 ) ;
#121 = COLOUR_RGB ( '',0.9568627450980391500, 0.9490196078431372100, 0.9607843137254902200 ) ;
#122 = FACE_OUTER_BOUND ( 'NONE', #62, .T. ) ;
#123 = CARTESIAN_POINT ( 'NONE',  ( 0.0000000000000000000, 2.060400190306149500E-015, -0.2556971923595302600 ) ) ;
#124 = DIRECTION ( 'NONE',  ( -0.0000000000000000000, -0.0000000000000000000, 1.000000000000000000 ) ) ;
#125 = VECTOR ( 'NONE', #124, 1000.000000000000000 ) ;
#126 = CARTESIAN_POINT ( 'NONE',  ( -12.70000000000000100, 1.555250069354419300E-015, 10.14940656248153400 ) ) ;
#127 = LINE ( 'NONE', #126, #125 ) ;
#128 = STYLED_ITEM ( 'NONE', ( #129 ), #35 ) ;
#129 = PRESENTATION_STYLE_ASSIGNMENT (( #142 ) ) ;
#130 = UNCERTAINTY_MEASURE_WITH_UNIT (LENGTH_MEASURE( 1.000000000000000100E-005 ), #153, 'distance_accuracy_value', 'NONE');
#131 = SURFACE_STYLE_FILL_AREA ( #160 ) ;
#132 = AXIS2_PLACEMENT_3D ( 'NONE', #180, #179, #178 ) ;
#133 = CIRCLE ( 'NONE', #132, 12.70000000000000100 ) ;
#134 = CARTESIAN_POINT ( 'NONE',  ( 0.0000000000000000000, 0.0000000000000000000, 1.934574508044651300 ) ) ;
#135 = DIRECTION ( 'NONE',  ( 1.000000000000000000, 0.0000000000000000000, 0.0000000000000000000 ) ) ;
#136 = DIRECTION ( 'NONE',  ( -0.0000000000000000000, -0.0000000000000000000, 1.000000000000000000 ) ) ;
#137 = AXIS2_PLACEMENT_3D ( 'NONE', #134, #136, #135 ) ;
#138 = CIRCLE ( 'NONE', #137, 12.70000000000000100 ) ;
#139 = DIRECTION ( 'NONE',  ( 0.0000000000000000000, 1.000000000000000000, 0.0000000000000000000 ) ) ;
#140 = DIRECTION ( 'NONE',  ( -1.000000000000000000, 0.0000000000000000000, 0.0000000000000000000 ) ) ;
#141 = CARTESIAN_POINT ( 'NONE',  ( 0.0000000000000000000, 0.0000000000000000000, -33.90569719235953300 ) ) ;
#142 = SURFACE_STYLE_USAGE ( .BOTH. , #143 ) ;
#143 = SURFACE_SIDE_STYLE ('',( #131 ) ) ;
#144 = DIRECTION ( 'NONE',  ( 0.0000000000000000000, 1.000000000000000000, 0.0000000000000000000 ) ) ;
#145 = PRESENTATION_STYLE_ASSIGNMENT (( #146 ) ) ;
#146 = SURFACE_STYLE_USAGE ( .BOTH. , #147 ) ;
#147 = SURFACE_SIDE_STYLE ('',( #148 ) ) ;
#148 = SURFACE_STYLE_FILL_AREA ( #149 ) ;
#149 = FILL_AREA_STYLE ('',( #120 ) ) ;
#150 =( GEOMETRIC_REPRESENTATION_CONTEXT ( 3 ) GLOBAL_UNCERTAINTY_ASSIGNED_CONTEXT ( ( #170 ) ) GLOBAL_UNIT_ASSIGNED_CONTEXT ( ( #185, #171, #175 ) ) REPRESENTATION_CONTEXT ( 'NONE', 'WORKASPACE' ) );
#151 = FILL_AREA_STYLE_COLOUR ( '', #152 ) ;
#152 = COLOUR_RGB ( '',0.9568627450980391500, 0.9490196078431372100, 0.9607843137254902200 ) ;
#153 =( LENGTH_UNIT ( ) NAMED_UNIT ( * ) SI_UNIT ( .MILLI., .METRE. ) );
#154 = CARTESIAN_POINT ( 'NONE',  ( -1.555250069354418500E-015, -12.69999999999999200, 1.934574508044653700 ) ) ;
#155 = CARTESIAN_POINT ( 'NONE',  ( 12.70000000000000100, 0.0000000000000000000, 1.934574508044651300 ) ) ;
#156 = SPHERICAL_SURFACE ( 'NONE', #159, 33.64999999999999900 ) ;
#157 =( GEOMETRIC_REPRESENTATION_CONTEXT ( 3 ) GLOBAL_UNCERTAINTY_ASSIGNED_CONTEXT ( ( #130 ) ) GLOBAL_UNIT_ASSIGNED_CONTEXT ( ( #153, #158, #161 ) ) REPRESENTATION_CONTEXT ( 'NONE', 'WORKASPACE' ) );
#158 =( NAMED_UNIT ( * ) PLANE_ANGLE_UNIT ( ) SI_UNIT ( $, .RADIAN. ) );
#159 = AXIS2_PLACEMENT_3D ( 'NONE', #141, #140, #139 ) ;
#160 = FILL_AREA_STYLE ('',( #151 ) ) ;
#161 =( NAMED_UNIT ( * ) SI_UNIT ( $, .STERADIAN. ) SOLID_ANGLE_UNIT ( ) );
#162 = AXIS2_PLACEMENT_3D ( 'NONE', #173, #172, #144 ) ;
#163 = CIRCLE ( 'NONE', #168, 12.70000000000000100 ) ;
#164 = CARTESIAN_POINT ( 'NONE',  ( -12.70000000000000100, 1.555250069354419300E-015, 1.934574508044651300 ) ) ;
#165 = DIRECTION ( 'NONE',  ( 1.000000000000000000, 0.0000000000000000000, 0.0000000000000000000 ) ) ;
#166 = DIRECTION ( 'NONE',  ( -0.0000000000000000000, -0.0000000000000000000, 1.000000000000000000 ) ) ;
#167 = CARTESIAN_POINT ( 'NONE',  ( 0.0000000000000000000, 0.0000000000000000000, 1.934574508044651300 ) ) ;
#168 = AXIS2_PLACEMENT_3D ( 'NONE', #167, #166, #165 ) ;
#169 = CARTESIAN_POINT ( 'NONE',  ( -12.70000000000000100, 1.555250069354419300E-015, -2.744302807640479200 ) ) ;
#170 = UNCERTAINTY_MEASURE_WITH_UNIT (LENGTH_MEASURE( 1.000000000000000100E-005 ), #185, 'distance_accuracy_value', 'NONE');
#171 =( NAMED_UNIT ( * ) PLANE_ANGLE_UNIT ( ) SI_UNIT ( $, .RADIAN. ) );
#172 = DIRECTION ( 'NONE',  ( -1.000000000000000000, 0.0000000000000000000, 0.0000000000000000000 ) ) ;
#173 = CARTESIAN_POINT ( 'NONE',  ( 0.0000000000000000000, 0.0000000000000000000, -97.25569719235952000 ) ) ;
#174 = FACE_OUTER_BOUND ( 'NONE', #54, .T. ) ;
#175 =( NAMED_UNIT ( * ) SI_UNIT ( $, .STERADIAN. ) SOLID_ANGLE_UNIT ( ) );
#176 = MECHANICAL_DESIGN_GEOMETRIC_PRESENTATION_REPRESENTATION (  '', ( #128 ), #150 ) ;
#177 = PRESENTATION_LAYER_ASSIGNMENT (  '', '', ( #128 ) ) ;
#178 = DIRECTION ( 'NONE',  ( 1.000000000000000000, 0.0000000000000000000, 0.0000000000000000000 ) ) ;
#179 = DIRECTION ( 'NONE',  ( -0.0000000000000000000, -0.0000000000000000000, 1.000000000000000000 ) ) ;
#180 = CARTESIAN_POINT ( 'NONE',  ( 0.0000000000000000000, 0.0000000000000000000, 1.934574508044651300 ) ) ;
#181 = MECHANICAL_DESIGN_GEOMETRIC_PRESENTATION_REPRESENTATION (  '', ( #183 ), #157 ) ;
#182 = PRESENTATION_LAYER_ASSIGNMENT (  '', '', ( #183 ) ) ;
#183 = STYLED_ITEM ( 'NONE', ( #145 ), #44 ) ;
#184 = SPHERICAL_SURFACE ( 'NONE', #162, 100.0000000000000000 ) ;
#185 =( LENGTH_UNIT ( ) NAMED_UNIT ( * ) SI_UNIT ( .MILLI., .METRE. ) );
#186 = SURFACE_STYLE_USAGE ( .BOTH. , #187 ) ;
#187 = SURFACE_SIDE_STYLE ('',( #188 ) ) ;
#188 = SURFACE_STYLE_FILL_AREA ( #189 ) ;
#189 = FILL_AREA_STYLE ('',( #190 ) ) ;
#190 = FILL_AREA_STYLE_COLOUR ( '', #191 ) ;
#191 = COLOUR_RGB ( '',0.9568627450980391500, 0.9490196078431372100, 0.9607843137254902200 ) ;
#192 =( LENGTH_UNIT ( ) NAMED_UNIT ( * ) SI_UNIT ( .MILLI., .METRE. ) );
#193 = MECHANICAL_DESIGN_GEOMETRIC_PRESENTATION_REPRESENTATION (  '', ( #195 ), #278 ) ;
#194 = PRESENTATION_LAYER_ASSIGNMENT (  '', '', ( #195 ) ) ;
#195 = STYLED_ITEM ( 'NONE', ( #196 ), #91 ) ;
#196 = PRESENTATION_STYLE_ASSIGNMENT (( #197 ) ) ;
#197 = SURFACE_STYLE_USAGE ( .BOTH. , #198 ) ;
#198 = SURFACE_SIDE_STYLE ('',( #199 ) ) ;
#199 = SURFACE_STYLE_FILL_AREA ( #200 ) ;
#200 = FILL_AREA_STYLE ('',( #214 ) ) ;
#201 = MECHANICAL_DESIGN_GEOMETRIC_PRESENTATION_REPRESENTATION (  '', ( #260 ), #265 ) ;
#202 =( NAMED_UNIT ( * ) PLANE_ANGLE_UNIT ( ) SI_UNIT ( $, .RADIAN. ) );
#203 = CARTESIAN_POINT ( 'NONE',  ( 0.0000000000000000000, 0.0000000000000000000, -2.744302807640479200 ) ) ;
#204 = AXIS2_PLACEMENT_3D ( 'NONE', #254, #207, #205 ) ;
#205 = DIRECTION ( 'NONE',  ( 1.000000000000000000, 0.0000000000000000000, 0.0000000000000000000 ) ) ;
#206 =( GEOMETRIC_REPRESENTATION_CONTEXT ( 3 ) GLOBAL_UNCERTAINTY_ASSIGNED_CONTEXT ( ( #218 ) ) GLOBAL_UNIT_ASSIGNED_CONTEXT ( ( #192, #212, #258 ) ) REPRESENTATION_CONTEXT ( 'NONE', 'WORKASPACE' ) );
#207 = DIRECTION ( 'NONE',  ( -0.0000000000000000000, -0.0000000000000000000, 1.000000000000000000 ) ) ;
#208 = CIRCLE ( 'NONE', #220, 12.70000000000000100 ) ;
#209 =( NAMED_UNIT ( * ) SI_UNIT ( $, .STERADIAN. ) SOLID_ANGLE_UNIT ( ) );
#210 = SURFACE_SIDE_STYLE ('',( #211 ) ) ;
#211 = SURFACE_STYLE_FILL_AREA ( #235 ) ;
#212 =( NAMED_UNIT ( * ) PLANE_ANGLE_UNIT ( ) SI_UNIT ( $, .RADIAN. ) );
#213 = DIRECTION ( 'NONE',  ( -0.0000000000000000000, -0.0000000000000000000, 1.000000000000000000 ) ) ;
#214 = FILL_AREA_STYLE_COLOUR ( '', #222 ) ;
#215 = DIRECTION ( 'NONE',  ( 0.0000000000000000000, 1.000000000000000000, 0.0000000000000000000 ) ) ;
#216 = CARTESIAN_POINT ( 'NONE',  ( 0.0000000000000000000, 0.0000000000000000000, 10.14940656248153400 ) ) ;
#217 = AXIS2_PLACEMENT_3D ( 'NONE', #216, #257, #256 ) ;
#218 = UNCERTAINTY_MEASURE_WITH_UNIT (LENGTH_MEASURE( 1.000000000000000100E-005 ), #192, 'distance_accuracy_value', 'NONE');
#219 =( LENGTH_UNIT ( ) NAMED_UNIT ( * ) SI_UNIT ( .MILLI., .METRE. ) );
#220 = AXIS2_PLACEMENT_3D ( 'NONE', #203, #213, #246 ) ;
#221 = CIRCLE ( 'NONE', #204, 12.70000000000000100 ) ;
#222 = COLOUR_RGB ( '',0.9568627450980391500, 0.9490196078431372100, 0.9607843137254902200 ) ;
#223 = FACE_OUTER_BOUND ( 'NONE', #63, .T. ) ;
#224 = DIRECTION ( 'NONE',  ( -1.224606353822377300E-016, -1.000000000000000000, 0.0000000000000000000 ) ) ;
#225 = DIRECTION ( 'NONE',  ( -1.000000000000000000, 1.224606353822377300E-016, 0.0000000000000000000 ) ) ;
#226 = CARTESIAN_POINT ( 'NONE',  ( 0.0000000000000000000, 0.0000000000000000000, -33.90569719235953300 ) ) ;
#227 = AXIS2_PLACEMENT_3D ( 'NONE', #226, #225, #224 ) ;
#228 = CIRCLE ( 'NONE', #227, 33.64999999999999900 ) ;
#229 = CARTESIAN_POINT ( 'NONE',  ( 0.0000000000000000000, 0.0000000000000000000, -33.90569719235953300 ) ) ;
#230 = AXIS2_PLACEMENT_3D ( 'NONE', #229, #241, #215 ) ;
#231 = MECHANICAL_DESIGN_GEOMETRIC_PRESENTATION_REPRESENTATION (  '', ( #233 ), #206 ) ;
#232 = PRESENTATION_LAYER_ASSIGNMENT (  '', '', ( #233 ) ) ;
#233 = STYLED_ITEM ( 'NONE', ( #234 ), #84 ) ;
#234 = PRESENTATION_STYLE_ASSIGNMENT (( #186 ) ) ;
#235 = FILL_AREA_STYLE ('',( #252 ) ) ;
#236 = COLOUR_RGB ( '',0.9568627450980391500, 0.9490196078431372100, 0.9607843137254902200 ) ;
#237 = CARTESIAN_POINT ( 'NONE',  ( -1.555250069354419300E-015, -12.69999999999999900, -2.744302807640481000 ) ) ;
#238 = DIRECTION ( 'NONE',  ( -1.000000000000000000, 1.224606353822377300E-016, 0.0000000000000000000 ) ) ;
#239 = CARTESIAN_POINT ( 'NONE',  ( 0.0000000000000000000, 0.0000000000000000000, -97.25569719235952000 ) ) ;
#240 = AXIS2_PLACEMENT_3D ( 'NONE', #239, #238, #245 ) ;
#241 = DIRECTION ( 'NONE',  ( -1.000000000000000000, 0.0000000000000000000, 0.0000000000000000000 ) ) ;
#242 = SPHERICAL_SURFACE ( 'NONE', #230, 33.64999999999999900 ) ;
#243 = FACE_OUTER_BOUND ( 'NONE', #36, .T. ) ;
#244 = CARTESIAN_POINT ( 'NONE',  ( 0.0000000000000000000, 6.123031769111886300E-015, 2.744302807640486300 ) ) ;
#245 = DIRECTION ( 'NONE',  ( -1.224606353822377300E-016, -1.000000000000000000, 0.0000000000000000000 ) ) ;
#246 = DIRECTION ( 'NONE',  ( 1.000000000000000000, 0.0000000000000000000, 0.0000000000000000000 ) ) ;
#247 = DIRECTION ( 'NONE',  ( 1.000000000000000000, 0.0000000000000000000, 0.0000000000000000000 ) ) ;
#248 = DIRECTION ( 'NONE',  ( -0.0000000000000000000, -0.0000000000000000000, 1.000000000000000000 ) ) ;
#249 = AXIS2_PLACEMENT_3D ( 'NONE', #262, #248, #247 ) ;
#250 = PRESENTATION_STYLE_ASSIGNMENT (( #251 ) ) ;
#251 = SURFACE_STYLE_USAGE ( .BOTH. , #210 ) ;
#252 = FILL_AREA_STYLE_COLOUR ( '', #236 ) ;
#253 = FACE_OUTER_BOUND ( 'NONE', #46, .T. ) ;
#254 = CARTESIAN_POINT ( 'NONE',  ( 0.0000000000000000000, 0.0000000000000000000, -2.744302807640479200 ) ) ;
#255 = CIRCLE ( 'NONE', #240, 100.0000000000000000 ) ;
#256 = DIRECTION ( 'NONE',  ( 1.000000000000000000, 0.0000000000000000000, 0.0000000000000000000 ) ) ;
#257 = DIRECTION ( 'NONE',  ( -0.0000000000000000000, -0.0000000000000000000, 1.000000000000000000 ) ) ;
#258 =( NAMED_UNIT ( * ) SI_UNIT ( $, .STERADIAN. ) SOLID_ANGLE_UNIT ( ) );
#259 = PRESENTATION_LAYER_ASSIGNMENT (  '', '', ( #260 ) ) ;
#260 = STYLED_ITEM ( 'NONE', ( #250 ), #79 ) ;
#261 = CYLINDRICAL_SURFACE ( 'NONE', #217, 12.70000000000000100 ) ;
#262 = CARTESIAN_POINT ( 'NONE',  ( 0.0000000000000000000, 0.0000000000000000000, 1.934574508044651300 ) ) ;
#263 = CIRCLE ( 'NONE', #249, 12.70000000000000100 ) ;
#264 = UNCERTAINTY_MEASURE_WITH_UNIT (LENGTH_MEASURE( 1.000000000000000100E-005 ), #219, 'distance_accuracy_value', 'NONE');
#265 =( GEOMETRIC_REPRESENTATION_CONTEXT ( 3 ) GLOBAL_UNCERTAINTY_ASSIGNED_CONTEXT ( ( #264 ) ) GLOBAL_UNIT_ASSIGNED_CONTEXT ( ( #219, #202, #209 ) ) REPRESENTATION_CONTEXT ( 'NONE', 'WORKASPACE' ) );
#266 = ADVANCED_BREP_SHAPE_REPRESENTATION ( '3471-E0W', ( #92, #307 ), #267 ) ;
#267 =( GEOMETRIC_REPRESENTATION_CONTEXT ( 3 ) GLOBAL_UNCERTAINTY_ASSIGNED_CONTEXT ( ( #280 ) ) GLOBAL_UNIT_ASSIGNED_CONTEXT ( ( #301, #299, #281 ) ) REPRESENTATION_CONTEXT ( 'NONE', 'WORKASPACE' ) );
#268 = STYLED_ITEM ( 'NONE', ( #269 ), #92 ) ;
#269 = PRESENTATION_STYLE_ASSIGNMENT (( #270 ) ) ;
#270 = SURFACE_STYLE_USAGE ( .BOTH. , #271 ) ;
#271 = SURFACE_SIDE_STYLE ('',( #285 ) ) ;
#272 =( LENGTH_UNIT ( ) NAMED_UNIT ( * ) SI_UNIT ( .MILLI., .METRE. ) );
#273 = UNCERTAINTY_MEASURE_WITH_UNIT (LENGTH_MEASURE( 1.000000000000000100E-005 ), #272, 'distance_accuracy_value', 'NONE');
#274 = CYLINDRICAL_SURFACE ( 'NONE', #284, 12.70000000000000100 ) ;
#275 =( GEOMETRIC_REPRESENTATION_CONTEXT ( 3 ) GLOBAL_UNCERTAINTY_ASSIGNED_CONTEXT ( ( #273 ) ) GLOBAL_UNIT_ASSIGNED_CONTEXT ( ( #272, #300, #279 ) ) REPRESENTATION_CONTEXT ( 'NONE', 'WORKASPACE' ) );
#276 = CARTESIAN_POINT ( 'NONE',  ( 0.0000000000000000000, 0.0000000000000000000, 10.14940656248153400 ) ) ;
#277 = CARTESIAN_POINT ( 'NONE',  ( 0.0000000000000000000, 12.69999999999999900, -2.744302807640481000 ) ) ;
#278 =( GEOMETRIC_REPRESENTATION_CONTEXT ( 3 ) GLOBAL_UNCERTAINTY_ASSIGNED_CONTEXT ( ( #118 ) ) GLOBAL_UNIT_ASSIGNED_CONTEXT ( ( #2, #9, #14 ) ) REPRESENTATION_CONTEXT ( 'NONE', 'WORKASPACE' ) );
#279 =( NAMED_UNIT ( * ) SI_UNIT ( $, .STERADIAN. ) SOLID_ANGLE_UNIT ( ) );
#280 = UNCERTAINTY_MEASURE_WITH_UNIT (LENGTH_MEASURE( 1.000000000000000100E-005 ), #301, 'distance_accuracy_value', 'NONE');
#281 =( NAMED_UNIT ( * ) SI_UNIT ( $, .STERADIAN. ) SOLID_ANGLE_UNIT ( ) );
#282 = MECHANICAL_DESIGN_GEOMETRIC_PRESENTATION_REPRESENTATION (  '', ( #268 ), #275 ) ;
#283 = PRESENTATION_LAYER_ASSIGNMENT (  '', '', ( #268 ) ) ;
#284 = AXIS2_PLACEMENT_3D ( 'NONE', #276, #290, #289 ) ;
#285 = SURFACE_STYLE_FILL_AREA ( #286 ) ;
#286 = FILL_AREA_STYLE ('',( #287 ) ) ;
#287 = FILL_AREA_STYLE_COLOUR ( '', #288 ) ;
#288 = COLOUR_RGB ( '',0.7960784313725489700, 0.8235294117647058400, 0.9372549019607843100 ) ;
#289 = DIRECTION ( 'NONE',  ( 1.000000000000000000, 0.0000000000000000000, 0.0000000000000000000 ) ) ;
#290 = DIRECTION ( 'NONE',  ( -0.0000000000000000000, -0.0000000000000000000, 1.000000000000000000 ) ) ;
#291 = STYLED_ITEM ( 'NONE', ( #292 ), #266 ) ;
#292 = PRESENTATION_STYLE_ASSIGNMENT (( #293 ) ) ;
#293 = SURFACE_STYLE_USAGE ( .BOTH. , #294 ) ;
#294 = SURFACE_SIDE_STYLE ('',( #295 ) ) ;
#295 = SURFACE_STYLE_FILL_AREA ( #296 ) ;
#296 = FILL_AREA_STYLE ('',( #297 ) ) ;
#297 = FILL_AREA_STYLE_COLOUR ( '', #298 ) ;
#298 = COLOUR_RGB ( '',0.7960784313725489700, 0.8235294117647058400, 0.9372549019607843100 ) ;
#299 =( NAMED_UNIT ( * ) PLANE_ANGLE_UNIT ( ) SI_UNIT ( $, .RADIAN. ) );
#300 =( NAMED_UNIT ( * ) PLANE_ANGLE_UNIT ( ) SI_UNIT ( $, .RADIAN. ) );
#301 =( LENGTH_UNIT ( ) NAMED_UNIT ( * ) SI_UNIT ( .MILLI., .METRE. ) );
#302 =( LENGTH_UNIT ( ) NAMED_UNIT ( * ) SI_UNIT ( .MILLI., .METRE. ) );
#303 = MECHANICAL_DESIGN_GEOMETRIC_PRESENTATION_REPRESENTATION (  '', ( #291 ), #305 ) ;
#304 = PRESENTATION_LAYER_ASSIGNMENT (  '', '', ( #291 ) ) ;
#305 =( GEOMETRIC_REPRESENTATION_CONTEXT ( 3 ) GLOBAL_UNCERTAINTY_ASSIGNED_CONTEXT ( ( #306 ) ) GLOBAL_UNIT_ASSIGNED_CONTEXT ( ( #302, #68, #90 ) ) REPRESENTATION_CONTEXT ( 'NONE', 'WORKASPACE' ) );
#306 = UNCERTAINTY_MEASURE_WITH_UNIT (LENGTH_MEASURE( 1.000000000000000100E-005 ), #302, 'distance_accuracy_value', 'NONE');
#307 = AXIS2_PLACEMENT_3D ( 'NONE', #310, #308, #309 ) ;
#308 = DIRECTION ( 'NONE',  ( 0.0000000000000000000, 0.0000000000000000000, 1.000000000000000000 ) ) ;
#309 = DIRECTION ( 'NONE',  ( 1.000000000000000000, 0.0000000000000000000, 0.0000000000000000000 ) ) ;
#310 = CARTESIAN_POINT ( 'NONE',  ( 0.0000000000000000000, 0.0000000000000000000, 0.0000000000000000000 ) ) ;
#311 = PRODUCT_DEFINITION_SHAPE ( 'NONE', 'NONE',  #314 ) ;
#312 = PRODUCT_RELATED_PRODUCT_CATEGORY ( 'part', '', ( #318 ) ) ;
#313 = PRODUCT_DEFINITION_FORMATION_WITH_SPECIFIED_SOURCE ( 'ANY', '', #318, .NOT_KNOWN. ) ;
#314 = PRODUCT_DEFINITION ( 'UNKNOWN', '', #313, #315 ) ;
#315 = PRODUCT_DEFINITION_CONTEXT ( 'detailed design', #317, 'design' ) ;
#316 = APPLICATION_PROTOCOL_DEFINITION ( 'draft international standard', 'automotive_design', 1998, #317 ) ;
#317 = APPLICATION_CONTEXT ( 'automotive_design' ) ;
#318 = PRODUCT ( '3471-E0W', '3471-E0W', '', ( #319 ) ) ;
#319 = PRODUCT_CONTEXT ( 'NONE', #322, 'mechanical' ) ;
#320 = APPLICATION_PROTOCOL_DEFINITION ( 'draft international standard', 'automotive_design', 1998, #322 ) ;
#321 = SHAPE_DEFINITION_REPRESENTATION ( #311, #266 ) ;
#322 = APPLICATION_CONTEXT ( 'automotive_design' ) ;
ENDSEC;
END-ISO-10303-21;
