ISO-10303-21;
HEADER;
FILE_DESCRIPTION (( 'STEP AP203' ),
    '1' );
FILE_NAME ('Web Model 15426_15430.step',
    '2020-07-31T18:49:40',
    ( '' ),
    ( '' ),
    'SwSTEP 2.0',
    'SolidWorks 2018',
    '' );
FILE_SCHEMA (( 'CONFIG_CONTROL_DESIGN' ));
ENDSEC;

DATA;
#1 = DIRECTION ( 'NONE',  ( -0.0000000000000000000, -0.0000000000000000000, -1.000000000000000000 ) ) ;
#2 = CARTESIAN_POINT ( 'NONE',  ( 25.39999999999999858, 3.110602869834276865E-15, 2.000000000000000000 ) ) ;
#3 = ADVANCED_FACE ( 'NONE', ( #133 ), #22, .T. ) ;
#4 = CC_DESIGN_APPROVAL ( #118, ( #102 ) ) ;
#5 = CALENDAR_DATE ( 2020, 31, 7 ) ;
#6 = ORIENTED_EDGE ( 'NONE', *, *, #129, .F. ) ;
#7 = AXIS2_PLACEMENT_3D ( 'NONE', #113, #75, #87 ) ;
#8 = EDGE_LOOP ( 'NONE', ( #29, #78 ) ) ;
#9 = CALENDAR_DATE ( 2020, 31, 7 ) ;
#10 = ORIENTED_EDGE ( 'NONE', *, *, #114, .T. ) ;
#11 = PRODUCT_DEFINITION_SHAPE ( 'NONE', 'NONE',  #60 ) ;
#12 = CIRCLE ( 'NONE', #7, 25.39999999999999858 ) ;
#13 = MANIFOLD_SOLID_BREP ( 'Boss-Extrude1', #98 ) ;
#14 = DIRECTION ( 'NONE',  ( -0.0000000000000000000, -0.0000000000000000000, -1.000000000000000000 ) ) ;
#15 = AXIS2_PLACEMENT_3D ( 'NONE', #139, #76, #45 ) ;
#16 = DIRECTION ( 'NONE',  ( 0.0000000000000000000, 0.0000000000000000000, 1.000000000000000000 ) ) ;
#17 = CARTESIAN_POINT ( 'NONE',  ( -25.39999999999999858, 0.0000000000000000000, -2.000000000000000000 ) ) ;
#18 = DATE_AND_TIME ( #39, #77 ) ;
#19 = CARTESIAN_POINT ( 'NONE',  ( -25.39999999999999858, 0.0000000000000000000, 2.000000000000000000 ) ) ;
#20 =( NAMED_UNIT ( * ) SI_UNIT ( $, .STERADIAN. ) SOLID_ANGLE_UNIT ( ) );
#21 = ADVANCED_FACE ( 'NONE', ( #104 ), #161, .T. ) ;
#22 = CYLINDRICAL_SURFACE ( 'NONE', #163, 25.39999999999999858 ) ;
#23 = APPROVAL_ROLE ( '' ) ;
#24 = UNCERTAINTY_MEASURE_WITH_UNIT (LENGTH_MEASURE( 1.000000000000000082E-05 ), #155, 'distance_accuracy_value', 'NONE');
#25 = DATE_AND_TIME ( #47, #34 ) ;
#26 = PERSON_AND_ORGANIZATION_ROLE ( 'creator' ) ;
#27 = ORIENTED_EDGE ( 'NONE', *, *, #140, .F. ) ;
#28 = PERSON_AND_ORGANIZATION ( #151, #128 ) ;
#29 = ORIENTED_EDGE ( 'NONE', *, *, #121, .T. ) ;
#30 = ADVANCED_BREP_SHAPE_REPRESENTATION ( 'Web Model 15426_15430', ( #13, #148 ), #32 ) ;
#31 = DIRECTION ( 'NONE',  ( -1.000000000000000000, 0.0000000000000000000, 0.0000000000000000000 ) ) ;
#32 =( GEOMETRIC_REPRESENTATION_CONTEXT ( 3 ) GLOBAL_UNCERTAINTY_ASSIGNED_CONTEXT ( ( #24 ) ) GLOBAL_UNIT_ASSIGNED_CONTEXT ( ( #155, #112, #20 ) ) REPRESENTATION_CONTEXT ( 'NONE', 'WORKASPACE' ) );
#33 = CARTESIAN_POINT ( 'NONE',  ( -25.39999999999999858, 0.0000000000000000000, 2.000000000000000000 ) ) ;
#34 = LOCAL_TIME ( 14, 49, 40.00000000000000000, #71 ) ;
#35 = DATE_AND_TIME ( #111, #74 ) ;
#36 = ORIENTED_EDGE ( 'NONE', *, *, #121, .F. ) ;
#37 = APPLICATION_PROTOCOL_DEFINITION ( 'international standard', 'config_control_design', 1994, #116 ) ;
#38 = DATE_TIME_ROLE ( 'creation_date' ) ;
#39 = CALENDAR_DATE ( 2020, 31, 7 ) ;
#40 = AXIS2_PLACEMENT_3D ( 'NONE', #141, #1, #58 ) ;
#41 = PERSON_AND_ORGANIZATION ( #151, #128 ) ;
#42 = PERSON_AND_ORGANIZATION ( #151, #128 ) ;
#43 = CARTESIAN_POINT ( 'NONE',  ( 25.39999999999999858, 3.110602869834276865E-15, 2.000000000000000000 ) ) ;
#44 = CC_DESIGN_PERSON_AND_ORGANIZATION_ASSIGNMENT ( #28, #117, ( #60 ) ) ;
#45 = DIRECTION ( 'NONE',  ( 1.000000000000000000, 0.0000000000000000000, 0.0000000000000000000 ) ) ;
#46 = DIRECTION ( 'NONE',  ( 0.0000000000000000000, 0.0000000000000000000, 1.000000000000000000 ) ) ;
#47 = CALENDAR_DATE ( 2020, 31, 7 ) ;
#48 = LINE ( 'NONE', #2, #93 ) ;
#49 = DIRECTION ( 'NONE',  ( 1.000000000000000000, 0.0000000000000000000, -0.0000000000000000000 ) ) ;
#50 = MECHANICAL_CONTEXT ( 'NONE', #116, 'mechanical' ) ;
#51 = EDGE_LOOP ( 'NONE', ( #99, #175 ) ) ;
#52 = AXIS2_PLACEMENT_3D ( 'NONE', #127, #46, #125 ) ;
#53 = VERTEX_POINT ( 'NONE', #43 ) ;
#54 = CC_DESIGN_APPROVAL ( #90, ( #105 ) ) ;
#55 = AXIS2_PLACEMENT_3D ( 'NONE', #62, #88, #49 ) ;
#56 = FACE_OUTER_BOUND ( 'NONE', #8, .T. ) ;
#57 = DIRECTION ( 'NONE',  ( 0.0000000000000000000, 0.0000000000000000000, 1.000000000000000000 ) ) ;
#58 = DIRECTION ( 'NONE',  ( -1.000000000000000000, 0.0000000000000000000, 0.0000000000000000000 ) ) ;
#59 = PERSON_AND_ORGANIZATION ( #151, #128 ) ;
#60 = PRODUCT_DEFINITION ( 'UNKNOWN', '', #105, #68 ) ;
#61 = CARTESIAN_POINT ( 'NONE',  ( 0.0000000000000000000, 0.0000000000000000000, 2.000000000000000000 ) ) ;
#62 = CARTESIAN_POINT ( 'NONE',  ( 0.0000000000000000000, 0.0000000000000000000, 2.000000000000000000 ) ) ;
#63 = EDGE_LOOP ( 'NONE', ( #27, #119, #10, #6 ) ) ;
#64 = ADVANCED_FACE ( 'NONE', ( #124 ), #137, .F. ) ;
#65 = PERSON_AND_ORGANIZATION_ROLE ( 'design_owner' ) ;
#66 = APPLICATION_CONTEXT ( 'configuration controlled 3d designs of mechanical parts and assemblies' ) ;
#67 = CC_DESIGN_PERSON_AND_ORGANIZATION_ASSIGNMENT ( #172, #82, ( #105 ) ) ;
#68 = DESIGN_CONTEXT ( 'detailed design', #66, 'design' ) ;
#69 = PERSON_AND_ORGANIZATION ( #151, #128 ) ;
#70 = AXIS2_PLACEMENT_3D ( 'NONE', #135, #57, #72 ) ;
#71 = COORDINATED_UNIVERSAL_TIME_OFFSET ( 5, 0, .BEHIND. ) ;
#72 = DIRECTION ( 'NONE',  ( 1.000000000000000000, 0.0000000000000000000, 0.0000000000000000000 ) ) ;
#73 = COORDINATED_UNIVERSAL_TIME_OFFSET ( 5, 0, .BEHIND. ) ;
#74 = LOCAL_TIME ( 14, 49, 40.00000000000000000, #80 ) ;
#75 = DIRECTION ( 'NONE',  ( 0.0000000000000000000, 0.0000000000000000000, 1.000000000000000000 ) ) ;
#76 = DIRECTION ( 'NONE',  ( 0.0000000000000000000, 0.0000000000000000000, 1.000000000000000000 ) ) ;
#77 = LOCAL_TIME ( 14, 49, 40.00000000000000000, #142 ) ;
#78 = ORIENTED_EDGE ( 'NONE', *, *, #140, .T. ) ;
#79 = CC_DESIGN_DATE_AND_TIME_ASSIGNMENT ( #160, #38, ( #60 ) ) ;
#80 = COORDINATED_UNIVERSAL_TIME_OFFSET ( 5, 0, .BEHIND. ) ;
#81 = ADVANCED_FACE ( 'NONE', ( #56 ), #166, .T. ) ;
#82 = PERSON_AND_ORGANIZATION_ROLE ( 'design_supplier' ) ;
#83 = LOCAL_TIME ( 14, 49, 40.00000000000000000, #73 ) ;
#84 = APPROVAL_ROLE ( '' ) ;
#85 = APPROVAL_PERSON_ORGANIZATION ( #59, #118, #146 ) ;
#86 = CIRCLE ( 'NONE', #96, 25.39999999999999858 ) ;
#87 = DIRECTION ( 'NONE',  ( 1.000000000000000000, 0.0000000000000000000, 0.0000000000000000000 ) ) ;
#88 = DIRECTION ( 'NONE',  ( 0.0000000000000000000, 0.0000000000000000000, 1.000000000000000000 ) ) ;
#89 = APPROVAL_DATE_TIME ( #154, #90 ) ;
#90 = APPROVAL ( #131, 'UNSPECIFIED' ) ;
#91 = VERTEX_POINT ( 'NONE', #17 ) ;
#92 = CARTESIAN_POINT ( 'NONE',  ( 25.39999999999999858, 3.110602869834276865E-15, -2.000000000000000000 ) ) ;
#93 = VECTOR ( 'NONE', #152, 1000.000000000000000 ) ;
#94 = PERSON_AND_ORGANIZATION ( #151, #128 ) ;
#95 = LINE ( 'NONE', #19, #162 ) ;
#96 = AXIS2_PLACEMENT_3D ( 'NONE', #61, #16, #156 ) ;
#97 = APPROVAL_STATUS ( 'not_yet_approved' ) ;
#98 = CLOSED_SHELL ( 'NONE', ( #21, #3, #81, #64 ) ) ;
#99 = ORIENTED_EDGE ( 'NONE', *, *, #174, .F. ) ;
#100 = EDGE_LOOP ( 'NONE', ( #159, #36, #173, #165 ) ) ;
#101 = CARTESIAN_POINT ( 'NONE',  ( 0.0000000000000000000, 0.0000000000000000000, 2.000000000000000000 ) ) ;
#102 = SECURITY_CLASSIFICATION ( '', '', #120 ) ;
#103 = APPROVAL_PERSON_ORGANIZATION ( #41, #90, #84 ) ;
#104 = FACE_OUTER_BOUND ( 'NONE', #63, .T. ) ;
#105 = PRODUCT_DEFINITION_FORMATION_WITH_SPECIFIED_SOURCE ( 'ANY', '', #138, .NOT_KNOWN. ) ;
#106 = EDGE_CURVE ( 'NONE', #53, #115, #48, .T. ) ;
#107 = CIRCLE ( 'NONE', #70, 25.39999999999999858 ) ;
#108 = CC_DESIGN_PERSON_AND_ORGANIZATION_ASSIGNMENT ( #69, #170, ( #102 ) ) ;
#109 = PERSON_AND_ORGANIZATION ( #151, #128 ) ;
#110 = CC_DESIGN_DATE_AND_TIME_ASSIGNMENT ( #18, #171, ( #102 ) ) ;
#111 = CALENDAR_DATE ( 2020, 31, 7 ) ;
#112 =( NAMED_UNIT ( * ) PLANE_ANGLE_UNIT ( ) SI_UNIT ( $, .RADIAN. ) );
#113 = CARTESIAN_POINT ( 'NONE',  ( 0.0000000000000000000, 0.0000000000000000000, 2.000000000000000000 ) ) ;
#114 = EDGE_CURVE ( 'NONE', #115, #91, #107, .T. ) ;
#115 = VERTEX_POINT ( 'NONE', #92 ) ;
#116 = APPLICATION_CONTEXT ( 'configuration controlled 3d designs of mechanical parts and assemblies' ) ;
#117 = PERSON_AND_ORGANIZATION_ROLE ( 'creator' ) ;
#118 = APPROVAL ( #97, 'UNSPECIFIED' ) ;
#119 = ORIENTED_EDGE ( 'NONE', *, *, #106, .T. ) ;
#120 = SECURITY_CLASSIFICATION_LEVEL ( 'unclassified' ) ;
#121 = EDGE_CURVE ( 'NONE', #147, #53, #86, .T. ) ;
#122 = CC_DESIGN_SECURITY_CLASSIFICATION ( #102, ( #105 ) ) ;
#123 = APPROVAL_DATE_TIME ( #25, #118 ) ;
#124 = FACE_OUTER_BOUND ( 'NONE', #51, .T. ) ;
#125 = DIRECTION ( 'NONE',  ( 1.000000000000000000, 0.0000000000000000000, -0.0000000000000000000 ) ) ;
#126 = DIRECTION ( 'NONE',  ( -0.0000000000000000000, -0.0000000000000000000, -1.000000000000000000 ) ) ;
#127 = CARTESIAN_POINT ( 'NONE',  ( 0.0000000000000000000, 0.0000000000000000000, -2.000000000000000000 ) ) ;
#128 = ORGANIZATION ( 'UNSPECIFIED', 'UNSPECIFIED', '' ) ;
#129 = EDGE_CURVE ( 'NONE', #147, #91, #95, .T. ) ;
#130 = PRODUCT_RELATED_PRODUCT_CATEGORY ( 'detail', '', ( #138 ) ) ;
#131 = APPROVAL_STATUS ( 'not_yet_approved' ) ;
#132 = COORDINATED_UNIVERSAL_TIME_OFFSET ( 5, 0, .BEHIND. ) ;
#133 = FACE_OUTER_BOUND ( 'NONE', #100, .T. ) ;
#134 = CC_DESIGN_PERSON_AND_ORGANIZATION_ASSIGNMENT ( #109, #26, ( #105 ) ) ;
#135 = CARTESIAN_POINT ( 'NONE',  ( 0.0000000000000000000, 0.0000000000000000000, -2.000000000000000000 ) ) ;
#136 = CARTESIAN_POINT ( 'NONE',  ( 0.0000000000000000000, 0.0000000000000000000, 0.0000000000000000000 ) ) ;
#137 = PLANE ( 'NONE',  #52 ) ;
#138 = PRODUCT ( 'Web Model 15426_15430', 'Web Model 15426_15430', '', ( #50 ) ) ;
#139 = CARTESIAN_POINT ( 'NONE',  ( 0.0000000000000000000, 0.0000000000000000000, -2.000000000000000000 ) ) ;
#140 = EDGE_CURVE ( 'NONE', #53, #147, #12, .T. ) ;
#141 = CARTESIAN_POINT ( 'NONE',  ( 0.0000000000000000000, 0.0000000000000000000, 2.000000000000000000 ) ) ;
#142 = COORDINATED_UNIVERSAL_TIME_OFFSET ( 5, 0, .BEHIND. ) ;
#143 = APPROVAL_PERSON_ORGANIZATION ( #42, #153, #23 ) ;
#144 = CIRCLE ( 'NONE', #15, 25.39999999999999858 ) ;
#145 = DIRECTION ( 'NONE',  ( 1.000000000000000000, 0.0000000000000000000, 0.0000000000000000000 ) ) ;
#146 = APPROVAL_ROLE ( '' ) ;
#147 = VERTEX_POINT ( 'NONE', #33 ) ;
#148 = AXIS2_PLACEMENT_3D ( 'NONE', #136, #164, #145 ) ;
#149 = CC_DESIGN_PERSON_AND_ORGANIZATION_ASSIGNMENT ( #94, #65, ( #138 ) ) ;
#150 = SHAPE_DEFINITION_REPRESENTATION ( #11, #30 ) ;
#151 = PERSON ( 'UNSPECIFIED', 'UNSPECIFIED', 'UNSPECIFIED', ('UNSPECIFIED'), ('UNSPECIFIED'), ('UNSPECIFIED') ) ;
#152 = DIRECTION ( 'NONE',  ( -0.0000000000000000000, -0.0000000000000000000, -1.000000000000000000 ) ) ;
#153 = APPROVAL ( #167, 'UNSPECIFIED' ) ;
#154 = DATE_AND_TIME ( #5, #158 ) ;
#155 =( LENGTH_UNIT ( ) NAMED_UNIT ( * ) SI_UNIT ( .MILLI., .METRE. ) );
#156 = DIRECTION ( 'NONE',  ( 1.000000000000000000, 0.0000000000000000000, 0.0000000000000000000 ) ) ;
#157 = APPLICATION_PROTOCOL_DEFINITION ( 'international standard', 'config_control_design', 1994, #66 ) ;
#158 = LOCAL_TIME ( 14, 49, 40.00000000000000000, #132 ) ;
#159 = ORIENTED_EDGE ( 'NONE', *, *, #106, .F. ) ;
#160 = DATE_AND_TIME ( #9, #83 ) ;
#161 = CYLINDRICAL_SURFACE ( 'NONE', #40, 25.39999999999999858 ) ;
#162 = VECTOR ( 'NONE', #126, 1000.000000000000000 ) ;
#163 = AXIS2_PLACEMENT_3D ( 'NONE', #101, #14, #31 ) ;
#164 = DIRECTION ( 'NONE',  ( 0.0000000000000000000, 0.0000000000000000000, 1.000000000000000000 ) ) ;
#165 = ORIENTED_EDGE ( 'NONE', *, *, #174, .T. ) ;
#166 = PLANE ( 'NONE',  #55 ) ;
#167 = APPROVAL_STATUS ( 'not_yet_approved' ) ;
#168 = APPROVAL_DATE_TIME ( #35, #153 ) ;
#169 = CC_DESIGN_APPROVAL ( #153, ( #60 ) ) ;
#170 = PERSON_AND_ORGANIZATION_ROLE ( 'classification_officer' ) ;
#171 = DATE_TIME_ROLE ( 'classification_date' ) ;
#172 = PERSON_AND_ORGANIZATION ( #151, #128 ) ;
#173 = ORIENTED_EDGE ( 'NONE', *, *, #129, .T. ) ;
#174 = EDGE_CURVE ( 'NONE', #91, #115, #144, .T. ) ;
#175 = ORIENTED_EDGE ( 'NONE', *, *, #114, .F. ) ;
ENDSEC;
END-ISO-10303-21;
