ISO-10303-21;
HEADER;
FILE_DESCRIPTION (( 'STEP AP203' ),
    '1' );
FILE_NAME ('Web Model 15402_15402.step',
    '2020-09-02T13:01:21',
    ( '' ),
    ( '' ),
    'SwSTEP 2.0',
    'SolidWorks 2018',
    '' );
FILE_SCHEMA (( 'CONFIG_CONTROL_DESIGN' ));
ENDSEC;

DATA;
#1 = PERSON_AND_ORGANIZATION ( #157, #114 ) ;
#2 = APPLICATION_PROTOCOL_DEFINITION ( 'international standard', 'config_control_design', 1994, #103 ) ;
#3 = EDGE_LOOP ( 'NONE', ( #153, #93, #8, #44 ) ) ;
#4 = APPROVAL_STATUS ( 'not_yet_approved' ) ;
#5 = PERSON_AND_ORGANIZATION_ROLE ( 'classification_officer' ) ;
#6 = ORIENTED_EDGE ( 'NONE', *, *, #14, .F. ) ;
#7 = PERSON_AND_ORGANIZATION ( #157, #114 ) ;
#8 = ORIENTED_EDGE ( 'NONE', *, *, #14, .T. ) ;
#9 = CARTESIAN_POINT ( 'NONE',  ( -0.7500000000000000000, 0.0000000000000000000, 0.0000000000000000000 ) ) ;
#10 = EDGE_LOOP ( 'NONE', ( #33, #109, #151, #6 ) ) ;
#11 = CARTESIAN_POINT ( 'NONE',  ( 0.7500000000000000000, 0.0000000000000000000, 0.0000000000000000000 ) ) ;
#12 = LOCAL_TIME ( 9, 1, 21.00000000000000000, #122 ) ;
#13 = PERSON_AND_ORGANIZATION_ROLE ( 'creator' ) ;
#14 = EDGE_CURVE ( 'NONE', #138, #163, #147, .T. ) ;
#15 = APPROVAL_STATUS ( 'not_yet_approved' ) ;
#16 = CC_DESIGN_PERSON_AND_ORGANIZATION_ASSIGNMENT ( #53, #13, ( #106 ) ) ;
#17 = EDGE_CURVE ( 'NONE', #163, #67, #29, .T. ) ;
#18 = LOCAL_TIME ( 9, 1, 21.00000000000000000, #152 ) ;
#19 = CC_DESIGN_DATE_AND_TIME_ASSIGNMENT ( #131, #104, ( #78 ) ) ;
#20 = ORIENTED_EDGE ( 'NONE', *, *, #126, .T. ) ;
#21 = DIRECTION ( 'NONE',  ( 0.0000000000000000000, 0.0000000000000000000, 1.000000000000000000 ) ) ;
#22 = CALENDAR_DATE ( 2020, 2, 9 ) ;
#23 = DATE_AND_TIME ( #59, #18 ) ;
#24 = CYLINDRICAL_SURFACE ( 'NONE', #164, 6.349999999999999645 ) ;
#25 = AXIS2_PLACEMENT_3D ( 'NONE', #64, #133, #148 ) ;
#26 = FACE_OUTER_BOUND ( 'NONE', #156, .T. ) ;
#27 = APPROVAL_ROLE ( '' ) ;
#28 = PERSON_AND_ORGANIZATION_ROLE ( 'creator' ) ;
#29 = CIRCLE ( 'NONE', #25, 6.349999999999999645 ) ;
#30 = CC_DESIGN_SECURITY_CLASSIFICATION ( #78, ( #129 ) ) ;
#31 = PLANE ( 'NONE',  #57 ) ;
#32 = DATE_AND_TIME ( #22, #12 ) ;
#33 = ORIENTED_EDGE ( 'NONE', *, *, #126, .F. ) ;
#34 = ADVANCED_FACE ( 'NONE', ( #71 ), #31, .T. ) ;
#35 = APPROVAL_DATE_TIME ( #23, #37 ) ;
#36 = ORIENTED_EDGE ( 'NONE', *, *, #17, .F. ) ;
#37 = APPROVAL ( #69, 'UNSPECIFIED' ) ;
#38 = AXIS2_PLACEMENT_3D ( 'NONE', #121, #136, #52 ) ;
#39 = CARTESIAN_POINT ( 'NONE',  ( 0.7500000000000000000, 7.776507174585692163E-16, -6.349999999999999645 ) ) ;
#40 = DIRECTION ( 'NONE',  ( 0.0000000000000000000, 0.0000000000000000000, -1.000000000000000000 ) ) ;
#41 = EDGE_LOOP ( 'NONE', ( #51, #20 ) ) ;
#42 = PERSON_AND_ORGANIZATION_ROLE ( 'design_supplier' ) ;
#43 = CARTESIAN_POINT ( 'NONE',  ( 0.7500000000000000000, 7.776507174585692163E-16, -6.349999999999999645 ) ) ;
#44 = ORIENTED_EDGE ( 'NONE', *, *, #17, .T. ) ;
#45 = DIRECTION ( 'NONE',  ( -1.000000000000000000, -0.0000000000000000000, -0.0000000000000000000 ) ) ;
#46 = COORDINATED_UNIVERSAL_TIME_OFFSET ( 5, 0, .BEHIND. ) ;
#47 = DIRECTION ( 'NONE',  ( 1.000000000000000000, 0.0000000000000000000, 0.0000000000000000000 ) ) ;
#48 = AXIS2_PLACEMENT_3D ( 'NONE', #9, #149, #91 ) ;
#49 = DESIGN_CONTEXT ( 'detailed design', #103, 'design' ) ;
#50 = DIRECTION ( 'NONE',  ( 0.0000000000000000000, 0.0000000000000000000, -1.000000000000000000 ) ) ;
#51 = ORIENTED_EDGE ( 'NONE', *, *, #165, .T. ) ;
#52 = DIRECTION ( 'NONE',  ( 0.0000000000000000000, 0.0000000000000000000, -1.000000000000000000 ) ) ;
#53 = PERSON_AND_ORGANIZATION ( #157, #114 ) ;
#54 = CARTESIAN_POINT ( 'NONE',  ( -0.7500000000000000000, 0.0000000000000000000, 6.349999999999999645 ) ) ;
#55 = DIRECTION ( 'NONE',  ( 0.0000000000000000000, 0.0000000000000000000, 1.000000000000000000 ) ) ;
#56 = APPROVAL_PERSON_ORGANIZATION ( #92, #123, #27 ) ;
#57 = AXIS2_PLACEMENT_3D ( 'NONE', #144, #47, #50 ) ;
#58 = ORIENTED_EDGE ( 'NONE', *, *, #105, .F. ) ;
#59 = CALENDAR_DATE ( 2020, 2, 9 ) ;
#60 = CC_DESIGN_DATE_AND_TIME_ASSIGNMENT ( #32, #130, ( #106 ) ) ;
#61 = CYLINDRICAL_SURFACE ( 'NONE', #139, 6.349999999999999645 ) ;
#62 = ADVANCED_BREP_SHAPE_REPRESENTATION ( 'Web Model 15402_15402', ( #127, #158 ), #175 ) ;
#63 = CC_DESIGN_PERSON_AND_ORGANIZATION_ASSIGNMENT ( #1, #28, ( #129 ) ) ;
#64 = CARTESIAN_POINT ( 'NONE',  ( -0.7500000000000000000, 0.0000000000000000000, 0.0000000000000000000 ) ) ;
#65 = DATE_AND_TIME ( #125, #166 ) ;
#66 = ADVANCED_FACE ( 'NONE', ( #26 ), #174, .F. ) ;
#67 = VERTEX_POINT ( 'NONE', #90 ) ;
#68 = CARTESIAN_POINT ( 'NONE',  ( 0.7500000000000000000, 0.0000000000000000000, 0.0000000000000000000 ) ) ;
#69 = APPROVAL_STATUS ( 'not_yet_approved' ) ;
#70 = APPROVAL_DATE_TIME ( #65, #100 ) ;
#71 = FACE_OUTER_BOUND ( 'NONE', #41, .T. ) ;
#72 = APPLICATION_CONTEXT ( 'configuration controlled 3d designs of mechanical parts and assemblies' ) ;
#73 = CARTESIAN_POINT ( 'NONE',  ( 0.7500000000000000000, 0.0000000000000000000, 6.349999999999999645 ) ) ;
#74 = CLOSED_SHELL ( 'NONE', ( #113, #111, #34, #66 ) ) ;
#75 = CC_DESIGN_PERSON_AND_ORGANIZATION_ASSIGNMENT ( #141, #42, ( #129 ) ) ;
#76 = PERSON_AND_ORGANIZATION ( #157, #114 ) ;
#77 = FACE_OUTER_BOUND ( 'NONE', #10, .T. ) ;
#78 = SECURITY_CLASSIFICATION ( '', '', #88 ) ;
#79 = DIRECTION ( 'NONE',  ( -1.000000000000000000, -0.0000000000000000000, -0.0000000000000000000 ) ) ;
#80 = PERSON_AND_ORGANIZATION ( #157, #114 ) ;
#81 = FACE_OUTER_BOUND ( 'NONE', #3, .T. ) ;
#82 = CC_DESIGN_APPROVAL ( #123, ( #78 ) ) ;
#83 = SHAPE_DEFINITION_REPRESENTATION ( #154, #62 ) ;
#84 = CARTESIAN_POINT ( 'NONE',  ( 0.7500000000000000000, 0.0000000000000000000, 0.0000000000000000000 ) ) ;
#85 = CIRCLE ( 'NONE', #94, 6.349999999999999645 ) ;
#86 = PERSON_AND_ORGANIZATION_ROLE ( 'design_owner' ) ;
#87 = DIRECTION ( 'NONE',  ( 0.0000000000000000000, 0.0000000000000000000, 1.000000000000000000 ) ) ;
#88 = SECURITY_CLASSIFICATION_LEVEL ( 'unclassified' ) ;
#89 = CIRCLE ( 'NONE', #150, 6.349999999999999645 ) ;
#90 = CARTESIAN_POINT ( 'NONE',  ( -0.7500000000000000000, 7.776507174585692163E-16, -6.349999999999999645 ) ) ;
#91 = DIRECTION ( 'NONE',  ( 0.0000000000000000000, 0.0000000000000000000, -1.000000000000000000 ) ) ;
#92 = PERSON_AND_ORGANIZATION ( #157, #114 ) ;
#93 = ORIENTED_EDGE ( 'NONE', *, *, #165, .F. ) ;
#94 = AXIS2_PLACEMENT_3D ( 'NONE', #142, #160, #40 ) ;
#95 = CARTESIAN_POINT ( 'NONE',  ( 0.0000000000000000000, 0.0000000000000000000, 0.0000000000000000000 ) ) ;
#96 = CALENDAR_DATE ( 2020, 2, 9 ) ;
#97 =( LENGTH_UNIT ( ) NAMED_UNIT ( * ) SI_UNIT ( .MILLI., .METRE. ) );
#98 = DIRECTION ( 'NONE',  ( 0.0000000000000000000, 0.0000000000000000000, -1.000000000000000000 ) ) ;
#99 = DIRECTION ( 'NONE',  ( 1.000000000000000000, 0.0000000000000000000, 0.0000000000000000000 ) ) ;
#100 = APPROVAL ( #4, 'UNSPECIFIED' ) ;
#101 = COORDINATED_UNIVERSAL_TIME_OFFSET ( 5, 0, .BEHIND. ) ;
#102 = LINE ( 'NONE', #39, #170 ) ;
#103 = APPLICATION_CONTEXT ( 'configuration controlled 3d designs of mechanical parts and assemblies' ) ;
#104 = DATE_TIME_ROLE ( 'classification_date' ) ;
#105 = EDGE_CURVE ( 'NONE', #67, #163, #145, .T. ) ;
#106 = PRODUCT_DEFINITION ( 'UNKNOWN', '', #129, #49 ) ;
#107 = VECTOR ( 'NONE', #45, 1000.000000000000000 ) ;
#108 = APPROVAL_DATE_TIME ( #135, #123 ) ;
#109 = ORIENTED_EDGE ( 'NONE', *, *, #117, .T. ) ;
#110 = CALENDAR_DATE ( 2020, 2, 9 ) ;
#111 = ADVANCED_FACE ( 'NONE', ( #81 ), #24, .T. ) ;
#112 = PRODUCT ( 'Web Model 15402_15402', 'Web Model 15402_15402', '', ( #169 ) ) ;
#113 = ADVANCED_FACE ( 'NONE', ( #77 ), #61, .T. ) ;
#114 = ORGANIZATION ( 'UNSPECIFIED', 'UNSPECIFIED', '' ) ;
#115 = CC_DESIGN_APPROVAL ( #100, ( #106 ) ) ;
#116 = DIRECTION ( 'NONE',  ( 1.000000000000000000, 0.0000000000000000000, 0.0000000000000000000 ) ) ;
#117 = EDGE_CURVE ( 'NONE', #167, #67, #102, .T. ) ;
#118 = DIRECTION ( 'NONE',  ( -1.000000000000000000, -0.0000000000000000000, -0.0000000000000000000 ) ) ;
#119 = APPLICATION_PROTOCOL_DEFINITION ( 'international standard', 'config_control_design', 1994, #72 ) ;
#120 = LOCAL_TIME ( 9, 1, 21.00000000000000000, #173 ) ;
#121 = CARTESIAN_POINT ( 'NONE',  ( -0.7500000000000000000, 0.0000000000000000000, 0.0000000000000000000 ) ) ;
#122 = COORDINATED_UNIVERSAL_TIME_OFFSET ( 5, 0, .BEHIND. ) ;
#123 = APPROVAL ( #15, 'UNSPECIFIED' ) ;
#124 = UNCERTAINTY_MEASURE_WITH_UNIT (LENGTH_MEASURE( 1.000000000000000082E-05 ), #97, 'distance_accuracy_value', 'NONE');
#125 = CALENDAR_DATE ( 2020, 2, 9 ) ;
#126 = EDGE_CURVE ( 'NONE', #167, #138, #89, .T. ) ;
#127 = MANIFOLD_SOLID_BREP ( 'Boss-Extrude1', #74 ) ;
#128 =( NAMED_UNIT ( * ) SI_UNIT ( $, .STERADIAN. ) SOLID_ANGLE_UNIT ( ) );
#129 = PRODUCT_DEFINITION_FORMATION_WITH_SPECIFIED_SOURCE ( 'ANY', '', #112, .NOT_KNOWN. ) ;
#130 = DATE_TIME_ROLE ( 'creation_date' ) ;
#131 = DATE_AND_TIME ( #96, #134 ) ;
#132 = APPROVAL_PERSON_ORGANIZATION ( #7, #37, #143 ) ;
#133 = DIRECTION ( 'NONE',  ( 1.000000000000000000, 0.0000000000000000000, 0.0000000000000000000 ) ) ;
#134 = LOCAL_TIME ( 9, 1, 21.00000000000000000, #101 ) ;
#135 = DATE_AND_TIME ( #110, #120 ) ;
#136 = DIRECTION ( 'NONE',  ( 1.000000000000000000, 0.0000000000000000000, 0.0000000000000000000 ) ) ;
#137 = CC_DESIGN_APPROVAL ( #37, ( #129 ) ) ;
#138 = VERTEX_POINT ( 'NONE', #155 ) ;
#139 = AXIS2_PLACEMENT_3D ( 'NONE', #84, #118, #55 ) ;
#140 = DIRECTION ( 'NONE',  ( -1.000000000000000000, -0.0000000000000000000, -0.0000000000000000000 ) ) ;
#141 = PERSON_AND_ORGANIZATION ( #157, #114 ) ;
#142 = CARTESIAN_POINT ( 'NONE',  ( 0.7500000000000000000, 0.0000000000000000000, 0.0000000000000000000 ) ) ;
#143 = APPROVAL_ROLE ( '' ) ;
#144 = CARTESIAN_POINT ( 'NONE',  ( 0.7500000000000000000, 0.0000000000000000000, 0.0000000000000000000 ) ) ;
#145 = CIRCLE ( 'NONE', #38, 6.349999999999999645 ) ;
#146 = APPROVAL_PERSON_ORGANIZATION ( #76, #100, #159 ) ;
#147 = LINE ( 'NONE', #73, #107 ) ;
#148 = DIRECTION ( 'NONE',  ( 0.0000000000000000000, 0.0000000000000000000, -1.000000000000000000 ) ) ;
#149 = DIRECTION ( 'NONE',  ( 1.000000000000000000, 0.0000000000000000000, 0.0000000000000000000 ) ) ;
#150 = AXIS2_PLACEMENT_3D ( 'NONE', #68, #116, #98 ) ;
#151 = ORIENTED_EDGE ( 'NONE', *, *, #105, .T. ) ;
#152 = COORDINATED_UNIVERSAL_TIME_OFFSET ( 5, 0, .BEHIND. ) ;
#153 = ORIENTED_EDGE ( 'NONE', *, *, #117, .F. ) ;
#154 = PRODUCT_DEFINITION_SHAPE ( 'NONE', 'NONE',  #106 ) ;
#155 = CARTESIAN_POINT ( 'NONE',  ( 0.7500000000000000000, 0.0000000000000000000, 6.349999999999999645 ) ) ;
#156 = EDGE_LOOP ( 'NONE', ( #36, #58 ) ) ;
#157 = PERSON ( 'UNSPECIFIED', 'UNSPECIFIED', 'UNSPECIFIED', ('UNSPECIFIED'), ('UNSPECIFIED'), ('UNSPECIFIED') ) ;
#158 = AXIS2_PLACEMENT_3D ( 'NONE', #95, #87, #99 ) ;
#159 = APPROVAL_ROLE ( '' ) ;
#160 = DIRECTION ( 'NONE',  ( 1.000000000000000000, 0.0000000000000000000, 0.0000000000000000000 ) ) ;
#161 =( NAMED_UNIT ( * ) PLANE_ANGLE_UNIT ( ) SI_UNIT ( $, .RADIAN. ) );
#162 = PRODUCT_RELATED_PRODUCT_CATEGORY ( 'detail', '', ( #112 ) ) ;
#163 = VERTEX_POINT ( 'NONE', #54 ) ;
#164 = AXIS2_PLACEMENT_3D ( 'NONE', #11, #79, #21 ) ;
#165 = EDGE_CURVE ( 'NONE', #138, #167, #85, .T. ) ;
#166 = LOCAL_TIME ( 9, 1, 21.00000000000000000, #46 ) ;
#167 = VERTEX_POINT ( 'NONE', #43 ) ;
#168 = PERSON_AND_ORGANIZATION ( #157, #114 ) ;
#169 = MECHANICAL_CONTEXT ( 'NONE', #72, 'mechanical' ) ;
#170 = VECTOR ( 'NONE', #140, 1000.000000000000000 ) ;
#171 = CC_DESIGN_PERSON_AND_ORGANIZATION_ASSIGNMENT ( #168, #5, ( #78 ) ) ;
#172 = CC_DESIGN_PERSON_AND_ORGANIZATION_ASSIGNMENT ( #80, #86, ( #112 ) ) ;
#173 = COORDINATED_UNIVERSAL_TIME_OFFSET ( 5, 0, .BEHIND. ) ;
#174 = PLANE ( 'NONE',  #48 ) ;
#175 =( GEOMETRIC_REPRESENTATION_CONTEXT ( 3 ) GLOBAL_UNCERTAINTY_ASSIGNED_CONTEXT ( ( #124 ) ) GLOBAL_UNIT_ASSIGNED_CONTEXT ( ( #97, #161, #128 ) ) REPRESENTATION_CONTEXT ( 'NONE', 'WORKASPACE' ) );
ENDSEC;
END-ISO-10303-21;
