ISO-10303-21;
HEADER;
FILE_DESCRIPTION (( 'STEP AP203' ),
    '1' );
FILE_NAME ('Web Model 14958_18336.step',
    '2021-06-28T14:39:14',
    ( '' ),
    ( '' ),
    'SwSTEP 2.0',
    'SolidWorks 2018',
    '' );
FILE_SCHEMA (( 'CONFIG_CONTROL_DESIGN' ));
ENDSEC;

DATA;
#1 = EDGE_CURVE ( 'NONE', #97, #166, #44, .T. ) ;
#2 = LOCAL_TIME ( 10, 39, 14.00000000000000000, #54 ) ;
#3 = CC_DESIGN_APPROVAL ( #114, ( #159 ) ) ;
#4 = LOCAL_TIME ( 10, 39, 14.00000000000000000, #66 ) ;
#5 = APPROVAL_ROLE ( '' ) ;
#6 = DIRECTION ( 'NONE',  ( 0.000000000000000000, 0.000000000000000000, -1.000000000000000000 ) ) ;
#7 = CC_DESIGN_PERSON_AND_ORGANIZATION_ASSIGNMENT ( #64, #81, ( #159 ) ) ;
#8 = DIRECTION ( 'NONE',  ( 0.000000000000000000, 0.000000000000000000, -1.000000000000000000 ) ) ;
#9 = FACE_OUTER_BOUND ( 'NONE', #102, .T. ) ;
#10 = CARTESIAN_POINT ( 'NONE',  ( -1.000000000000000000, 0.000000000000000000, 6.250000000000000000 ) ) ;
#11 = DATE_AND_TIME ( #110, #100 ) ;
#12 = DIRECTION ( 'NONE',  ( 1.000000000000000000, 0.000000000000000000, 0.000000000000000000 ) ) ;
#13 = AXIS2_PLACEMENT_3D ( 'NONE', #120, #154, #25 ) ;
#14 = CC_DESIGN_PERSON_AND_ORGANIZATION_ASSIGNMENT ( #139, #32, ( #34 ) ) ;
#15 = AXIS2_PLACEMENT_3D ( 'NONE', #168, #118, #8 ) ;
#16 = AXIS2_PLACEMENT_3D ( 'NONE', #76, #140, #113 ) ;
#17 = VECTOR ( 'NONE', #108, 1000.000000000000000 ) ;
#18 = COORDINATED_UNIVERSAL_TIME_OFFSET ( 5, 0, .BEHIND. ) ;
#19 = DIRECTION ( 'NONE',  ( 1.000000000000000000, 0.000000000000000000, 0.000000000000000000 ) ) ;
#20 = ORIENTED_EDGE ( 'NONE', *, *, #173, .F. ) ;
#21 = ADVANCED_FACE ( 'NONE', ( #89 ), #36, .T. ) ;
#22 = APPLICATION_PROTOCOL_DEFINITION ( 'international standard', 'config_control_design', 1994, #149 ) ;
#23 = VECTOR ( 'NONE', #153, 1000.000000000000000 ) ;
#24 = CC_DESIGN_DATE_AND_TIME_ASSIGNMENT ( #164, #105, ( #159 ) ) ;
#25 = DIRECTION ( 'NONE',  ( 0.000000000000000000, 0.000000000000000000, 1.000000000000000000 ) ) ;
#26 = AXIS2_PLACEMENT_3D ( 'NONE', #58, #27, #123 ) ;
#27 = DIRECTION ( 'NONE',  ( 1.000000000000000000, 0.000000000000000000, 0.000000000000000000 ) ) ;
#28 = SECURITY_CLASSIFICATION ( '', '', #119 ) ;
#29 = APPROVAL_STATUS ( 'not_yet_approved' ) ;
#30 = ORIENTED_EDGE ( 'NONE', *, *, #127, .F. ) ;
#31 = APPLICATION_PROTOCOL_DEFINITION ( 'international standard', 'config_control_design', 1994, #106 ) ;
#32 = PERSON_AND_ORGANIZATION_ROLE ( 'creator' ) ;
#33 = ORIENTED_EDGE ( 'NONE', *, *, #127, .T. ) ;
#34 = PRODUCT_DEFINITION_FORMATION_WITH_SPECIFIED_SOURCE ( 'ANY', '', #116, .NOT_KNOWN. ) ;
#35 = DATE_AND_TIME ( #175, #4 ) ;
#36 = PLANE ( 'NONE',  #15 ) ;
#37 = DIRECTION ( 'NONE',  ( 0.000000000000000000, 0.000000000000000000, -1.000000000000000000 ) ) ;
#38 = CARTESIAN_POINT ( 'NONE',  ( -1.000000000000000000, 0.000000000000000000, 0.000000000000000000 ) ) ;
#39 = VERTEX_POINT ( 'NONE', #73 ) ;
#40 = FACE_OUTER_BOUND ( 'NONE', #63, .T. ) ;
#41 = CALENDAR_DATE ( 2021, 28, 6 ) ;
#42 = AXIS2_PLACEMENT_3D ( 'NONE', #87, #112, #37 ) ;
#43 = AXIS2_PLACEMENT_3D ( 'NONE', #59, #88, #50 ) ;
#44 = CIRCLE ( 'NONE', #133, 6.250000000000000000 ) ;
#45 = CALENDAR_DATE ( 2021, 28, 6 ) ;
#46 = APPROVAL_ROLE ( '' ) ;
#47 = DIRECTION ( 'NONE',  ( 0.000000000000000000, 0.000000000000000000, -1.000000000000000000 ) ) ;
#48 = CC_DESIGN_PERSON_AND_ORGANIZATION_ASSIGNMENT ( #98, #167, ( #34 ) ) ;
#49 = APPROVAL ( #131, 'UNSPECIFIED' ) ;
#50 = DIRECTION ( 'NONE',  ( 0.000000000000000000, 0.000000000000000000, 1.000000000000000000 ) ) ;
#51 = CYLINDRICAL_SURFACE ( 'NONE', #43, 6.250000000000000000 ) ;
#52 = DATE_AND_TIME ( #91, #69 ) ;
#53 = ORIENTED_EDGE ( 'NONE', *, *, #169, .F. ) ;
#54 = COORDINATED_UNIVERSAL_TIME_OFFSET ( 5, 0, .BEHIND. ) ;
#55 = CC_DESIGN_APPROVAL ( #49, ( #28 ) ) ;
#56 = ADVANCED_FACE ( 'NONE', ( #9 ), #82, .F. ) ;
#57 = ORIENTED_EDGE ( 'NONE', *, *, #68, .T. ) ;
#58 = CARTESIAN_POINT ( 'NONE',  ( 1.000000000000000000, 0.000000000000000000, 0.000000000000000000 ) ) ;
#59 = CARTESIAN_POINT ( 'NONE',  ( 1.000000000000000000, 0.000000000000000000, 0.000000000000000000 ) ) ;
#60 = ORIENTED_EDGE ( 'NONE', *, *, #1, .T. ) ;
#61 = PERSON_AND_ORGANIZATION ( #78, #151 ) ;
#62 = CC_DESIGN_APPROVAL ( #77, ( #34 ) ) ;
#63 = EDGE_LOOP ( 'NONE', ( #53, #93, #135, #33 ) ) ;
#64 = PERSON_AND_ORGANIZATION ( #78, #151 ) ;
#65 = ADVANCED_BREP_SHAPE_REPRESENTATION ( 'Web Model 14958_18336', ( #158, #146 ), #161 ) ;
#66 = COORDINATED_UNIVERSAL_TIME_OFFSET ( 5, 0, .BEHIND. ) ;
#67 = APPROVAL_ROLE ( '' ) ;
#68 = EDGE_CURVE ( 'NONE', #132, #39, #90, .T. ) ;
#69 = LOCAL_TIME ( 10, 39, 14.00000000000000000, #94 ) ;
#70 = PRODUCT_DEFINITION_SHAPE ( 'NONE', 'NONE',  #159 ) ;
#71 = LINE ( 'NONE', #170, #23 ) ;
#72 = APPROVAL_PERSON_ORGANIZATION ( #171, #114, #46 ) ;
#73 = CARTESIAN_POINT ( 'NONE',  ( 1.000000000000000000, 7.654042494670957606E-16, -6.250000000000000000 ) ) ;
#74 = ORIENTED_EDGE ( 'NONE', *, *, #130, .F. ) ;
#75 = CC_DESIGN_SECURITY_CLASSIFICATION ( #28, ( #34 ) ) ;
#76 = CARTESIAN_POINT ( 'NONE',  ( 1.000000000000000000, 0.000000000000000000, 0.000000000000000000 ) ) ;
#77 = APPROVAL ( #29, 'UNSPECIFIED' ) ;
#78 = PERSON ( 'UNSPECIFIED', 'UNSPECIFIED', 'UNSPECIFIED', ('UNSPECIFIED'), ('UNSPECIFIED'), ('UNSPECIFIED') ) ;
#79 = CIRCLE ( 'NONE', #42, 6.250000000000000000 ) ;
#80 = DIRECTION ( 'NONE',  ( 1.000000000000000000, 0.000000000000000000, 0.000000000000000000 ) ) ;
#81 = PERSON_AND_ORGANIZATION_ROLE ( 'creator' ) ;
#82 = PLANE ( 'NONE',  #150 ) ;
#83 = APPROVAL_STATUS ( 'not_yet_approved' ) ;
#84 = CARTESIAN_POINT ( 'NONE',  ( -1.000000000000000000, 0.000000000000000000, 0.000000000000000000 ) ) ;
#85 = LINE ( 'NONE', #152, #17 ) ;
#86 = LOCAL_TIME ( 10, 39, 14.00000000000000000, #128 ) ;
#87 = CARTESIAN_POINT ( 'NONE',  ( -1.000000000000000000, 0.000000000000000000, 0.000000000000000000 ) ) ;
#88 = DIRECTION ( 'NONE',  ( -1.000000000000000000, -0.000000000000000000, -0.000000000000000000 ) ) ;
#89 = FACE_OUTER_BOUND ( 'NONE', #172, .T. ) ;
#90 = CIRCLE ( 'NONE', #16, 6.250000000000000000 ) ;
#91 = CALENDAR_DATE ( 2021, 28, 6 ) ;
#92 = PERSON_AND_ORGANIZATION ( #78, #151 ) ;
#93 = ORIENTED_EDGE ( 'NONE', *, *, #68, .F. ) ;
#94 = COORDINATED_UNIVERSAL_TIME_OFFSET ( 5, 0, .BEHIND. ) ;
#95 = PERSON_AND_ORGANIZATION_ROLE ( 'classification_officer' ) ;
#96 = DATE_AND_TIME ( #45, #2 ) ;
#97 = VERTEX_POINT ( 'NONE', #99 ) ;
#98 = PERSON_AND_ORGANIZATION ( #78, #151 ) ;
#99 = CARTESIAN_POINT ( 'NONE',  ( -1.000000000000000000, 7.654042494670957606E-16, -6.250000000000000000 ) ) ;
#100 = LOCAL_TIME ( 10, 39, 14.00000000000000000, #18 ) ;
#101 = ORIENTED_EDGE ( 'NONE', *, *, #169, .T. ) ;
#102 = EDGE_LOOP ( 'NONE', ( #30, #129 ) ) ;
#103 = APPROVAL_PERSON_ORGANIZATION ( #144, #49, #67 ) ;
#104 =( NAMED_UNIT ( * ) SI_UNIT ( $, .STERADIAN. ) SOLID_ANGLE_UNIT ( ) );
#105 = DATE_TIME_ROLE ( 'creation_date' ) ;
#106 = APPLICATION_CONTEXT ( 'configuration controlled 3d designs of mechanical parts and assemblies' ) ;
#107 = CC_DESIGN_PERSON_AND_ORGANIZATION_ASSIGNMENT ( #126, #148, ( #116 ) ) ;
#108 = DIRECTION ( 'NONE',  ( -1.000000000000000000, -0.000000000000000000, -0.000000000000000000 ) ) ;
#109 = UNCERTAINTY_MEASURE_WITH_UNIT (LENGTH_MEASURE( 1.000000000000000082E-05 ), #121, 'distance_accuracy_value', 'NONE');
#110 = CALENDAR_DATE ( 2021, 28, 6 ) ;
#111 = CARTESIAN_POINT ( 'NONE',  ( 0.000000000000000000, 0.000000000000000000, 0.000000000000000000 ) ) ;
#112 = DIRECTION ( 'NONE',  ( 1.000000000000000000, 0.000000000000000000, 0.000000000000000000 ) ) ;
#113 = DIRECTION ( 'NONE',  ( 0.000000000000000000, 0.000000000000000000, -1.000000000000000000 ) ) ;
#114 = APPROVAL ( #83, 'UNSPECIFIED' ) ;
#115 = CYLINDRICAL_SURFACE ( 'NONE', #13, 6.250000000000000000 ) ;
#116 = PRODUCT ( 'Web Model 14958_18336', 'Web Model 14958_18336', '', ( #147 ) ) ;
#117 = APPROVAL_DATE_TIME ( #52, #114 ) ;
#118 = DIRECTION ( 'NONE',  ( 1.000000000000000000, 0.000000000000000000, 0.000000000000000000 ) ) ;
#119 = SECURITY_CLASSIFICATION_LEVEL ( 'unclassified' ) ;
#120 = CARTESIAN_POINT ( 'NONE',  ( 1.000000000000000000, 0.000000000000000000, 0.000000000000000000 ) ) ;
#121 =( LENGTH_UNIT ( ) NAMED_UNIT ( * ) SI_UNIT ( .MILLI., .METRE. ) );
#122 = ADVANCED_FACE ( 'NONE', ( #40 ), #115, .T. ) ;
#123 = DIRECTION ( 'NONE',  ( 0.000000000000000000, 0.000000000000000000, -1.000000000000000000 ) ) ;
#124 = APPROVAL_PERSON_ORGANIZATION ( #92, #77, #5 ) ;
#125 = ORIENTED_EDGE ( 'NONE', *, *, #130, .T. ) ;
#126 = PERSON_AND_ORGANIZATION ( #78, #151 ) ;
#127 = EDGE_CURVE ( 'NONE', #166, #97, #79, .T. ) ;
#128 = COORDINATED_UNIVERSAL_TIME_OFFSET ( 5, 0, .BEHIND. ) ;
#129 = ORIENTED_EDGE ( 'NONE', *, *, #1, .F. ) ;
#130 = EDGE_CURVE ( 'NONE', #39, #132, #157, .T. ) ;
#131 = APPROVAL_STATUS ( 'not_yet_approved' ) ;
#132 = VERTEX_POINT ( 'NONE', #138 ) ;
#133 = AXIS2_PLACEMENT_3D ( 'NONE', #84, #19, #6 ) ;
#134 = DATE_TIME_ROLE ( 'classification_date' ) ;
#135 = ORIENTED_EDGE ( 'NONE', *, *, #173, .T. ) ;
#136 = APPROVAL_DATE_TIME ( #96, #77 ) ;
#137 = ADVANCED_FACE ( 'NONE', ( #143 ), #51, .T. ) ;
#138 = CARTESIAN_POINT ( 'NONE',  ( 1.000000000000000000, 0.000000000000000000, 6.250000000000000000 ) ) ;
#139 = PERSON_AND_ORGANIZATION ( #78, #151 ) ;
#140 = DIRECTION ( 'NONE',  ( 1.000000000000000000, 0.000000000000000000, 0.000000000000000000 ) ) ;
#141 = EDGE_LOOP ( 'NONE', ( #74, #101, #60, #20 ) ) ;
#142 = PRODUCT_RELATED_PRODUCT_CATEGORY ( 'detail', '', ( #116 ) ) ;
#143 = FACE_OUTER_BOUND ( 'NONE', #141, .T. ) ;
#144 = PERSON_AND_ORGANIZATION ( #78, #151 ) ;
#145 = CC_DESIGN_PERSON_AND_ORGANIZATION_ASSIGNMENT ( #61, #95, ( #28 ) ) ;
#146 = AXIS2_PLACEMENT_3D ( 'NONE', #111, #165, #80 ) ;
#147 = MECHANICAL_CONTEXT ( 'NONE', #149, 'mechanical' ) ;
#148 = PERSON_AND_ORGANIZATION_ROLE ( 'design_owner' ) ;
#149 = APPLICATION_CONTEXT ( 'configuration controlled 3d designs of mechanical parts and assemblies' ) ;
#150 = AXIS2_PLACEMENT_3D ( 'NONE', #38, #12, #47 ) ;
#151 = ORGANIZATION ( 'UNSPECIFIED', 'UNSPECIFIED', '' ) ;
#152 = CARTESIAN_POINT ( 'NONE',  ( 1.000000000000000000, 7.654042494670957606E-16, -6.250000000000000000 ) ) ;
#153 = DIRECTION ( 'NONE',  ( -1.000000000000000000, -0.000000000000000000, -0.000000000000000000 ) ) ;
#154 = DIRECTION ( 'NONE',  ( -1.000000000000000000, -0.000000000000000000, -0.000000000000000000 ) ) ;
#155 = CC_DESIGN_DATE_AND_TIME_ASSIGNMENT ( #11, #134, ( #28 ) ) ;
#156 = DESIGN_CONTEXT ( 'detailed design', #106, 'design' ) ;
#157 = CIRCLE ( 'NONE', #26, 6.250000000000000000 ) ;
#158 = MANIFOLD_SOLID_BREP ( 'Boss-Extrude1', #160 ) ;
#159 = PRODUCT_DEFINITION ( 'UNKNOWN', '', #34, #156 ) ;
#160 = CLOSED_SHELL ( 'NONE', ( #137, #122, #21, #56 ) ) ;
#161 =( GEOMETRIC_REPRESENTATION_CONTEXT ( 3 ) GLOBAL_UNCERTAINTY_ASSIGNED_CONTEXT ( ( #109 ) ) GLOBAL_UNIT_ASSIGNED_CONTEXT ( ( #121, #163, #104 ) ) REPRESENTATION_CONTEXT ( 'NONE', 'WORKASPACE' ) );
#162 = SHAPE_DEFINITION_REPRESENTATION ( #70, #65 ) ;
#163 =( NAMED_UNIT ( * ) PLANE_ANGLE_UNIT ( ) SI_UNIT ( $, .RADIAN. ) );
#164 = DATE_AND_TIME ( #41, #86 ) ;
#165 = DIRECTION ( 'NONE',  ( 0.000000000000000000, 0.000000000000000000, 1.000000000000000000 ) ) ;
#166 = VERTEX_POINT ( 'NONE', #10 ) ;
#167 = PERSON_AND_ORGANIZATION_ROLE ( 'design_supplier' ) ;
#168 = CARTESIAN_POINT ( 'NONE',  ( 1.000000000000000000, 0.000000000000000000, 0.000000000000000000 ) ) ;
#169 = EDGE_CURVE ( 'NONE', #39, #97, #85, .T. ) ;
#170 = CARTESIAN_POINT ( 'NONE',  ( 1.000000000000000000, 0.000000000000000000, 6.250000000000000000 ) ) ;
#171 = PERSON_AND_ORGANIZATION ( #78, #151 ) ;
#172 = EDGE_LOOP ( 'NONE', ( #57, #125 ) ) ;
#173 = EDGE_CURVE ( 'NONE', #132, #166, #71, .T. ) ;
#174 = APPROVAL_DATE_TIME ( #35, #49 ) ;
#175 = CALENDAR_DATE ( 2021, 28, 6 ) ;
ENDSEC;
END-ISO-10303-21;
