ISO-10303-21;
HEADER;
FILE_DESCRIPTION (( 'STEP AP203' ),
    '1' );
FILE_NAME ('34600_36946.step',
    '2017-08-24T13:16:52',
    ( '' ),
    ( '' ),
    'SwSTEP 2.0',
    'SolidWorks 2016',
    '' );
FILE_SCHEMA (( 'CONFIG_CONTROL_DESIGN' ));
ENDSEC;

DATA;
#1 = DIRECTION ( 'NONE',  ( 0.0000000000000000000, 0.0000000000000000000, 1.000000000000000000 ) ) ;
#2 = DATE_AND_TIME ( #41, #25 ) ;
#3 = DIRECTION ( 'NONE',  ( 0.0000000000000000000, 0.0000000000000000000, 1.000000000000000000 ) ) ;
#4 = CARTESIAN_POINT ( 'NONE',  ( 25.00000000000000000, 3.061616997868383000E-015, 2.000000000000000000 ) ) ;
#5 = EDGE_CURVE ( 'NONE', #100, #22, #66, .T. ) ;
#6 =( NAMED_UNIT ( * ) PLANE_ANGLE_UNIT ( ) SI_UNIT ( $, .RADIAN. ) );
#7 = APPROVAL ( #31, 'UNSPECIFIED' ) ;
#8 = DATE_AND_TIME ( #143, #51 ) ;
#9 = DATE_TIME_ROLE ( 'classification_date' ) ;
#10 = PERSON_AND_ORGANIZATION ( #77, #70 ) ;
#11 = APPROVAL_DATE_TIME ( #152, #45 ) ;
#12 = VECTOR ( 'NONE', #134, 1000.000000000000000 ) ;
#13 = MANIFOLD_SOLID_BREP ( 'Boss-Extrude1', #101 ) ;
#14 = PERSON_AND_ORGANIZATION ( #77, #70 ) ;
#15 = CC_DESIGN_APPROVAL ( #7, ( #171 ) ) ;
#16 = COORDINATED_UNIVERSAL_TIME_OFFSET ( 5, 0, .BEHIND. ) ;
#17 = CYLINDRICAL_SURFACE ( 'NONE', #57, 25.00000000000000000 ) ;
#18 = DIRECTION ( 'NONE',  ( -1.000000000000000000, 0.0000000000000000000, 0.0000000000000000000 ) ) ;
#19 = APPLICATION_PROTOCOL_DEFINITION ( 'international standard', 'config_control_design', 1994, #61 ) ;
#20 = ORIENTED_EDGE ( 'NONE', *, *, #115, .F. ) ;
#21 = DIRECTION ( 'NONE',  ( 1.000000000000000000, 0.0000000000000000000, 0.0000000000000000000 ) ) ;
#22 = VERTEX_POINT ( 'NONE', #79 ) ;
#23 =( GEOMETRIC_REPRESENTATION_CONTEXT ( 3 ) GLOBAL_UNCERTAINTY_ASSIGNED_CONTEXT ( ( #87 ) ) GLOBAL_UNIT_ASSIGNED_CONTEXT ( ( #95, #6, #59 ) ) REPRESENTATION_CONTEXT ( 'NONE', 'WORKASPACE' ) );
#24 = ORIENTED_EDGE ( 'NONE', *, *, #5, .F. ) ;
#25 = LOCAL_TIME ( 9, 16, 52.00000000000000000, #105 ) ;
#26 = FACE_OUTER_BOUND ( 'NONE', #32, .T. ) ;
#27 = CC_DESIGN_PERSON_AND_ORGANIZATION_ASSIGNMENT ( #10, #47, ( #85 ) ) ;
#28 = CC_DESIGN_PERSON_AND_ORGANIZATION_ASSIGNMENT ( #126, #40, ( #113 ) ) ;
#29 = COORDINATED_UNIVERSAL_TIME_OFFSET ( 5, 0, .BEHIND. ) ;
#30 = PRODUCT ( '34600_36946', '34600_36946', '', ( #78 ) ) ;
#31 = APPROVAL_STATUS ( 'not_yet_approved' ) ;
#32 = EDGE_LOOP ( 'NONE', ( #137, #24, #173, #114 ) ) ;
#33 = APPROVAL_ROLE ( '' ) ;
#34 = CC_DESIGN_PERSON_AND_ORGANIZATION_ASSIGNMENT ( #44, #122, ( #171 ) ) ;
#35 = CARTESIAN_POINT ( 'NONE',  ( 0.0000000000000000000, 0.0000000000000000000, 0.0000000000000000000 ) ) ;
#36 = CYLINDRICAL_SURFACE ( 'NONE', #159, 25.00000000000000000 ) ;
#37 = ORIENTED_EDGE ( 'NONE', *, *, #121, .T. ) ;
#38 = CC_DESIGN_SECURITY_CLASSIFICATION ( #113, ( #85 ) ) ;
#39 = EDGE_LOOP ( 'NONE', ( #67, #37, #93, #58 ) ) ;
#40 = PERSON_AND_ORGANIZATION_ROLE ( 'classification_officer' ) ;
#41 = CALENDAR_DATE ( 2017, 24, 8 ) ;
#42 = AXIS2_PLACEMENT_3D ( 'NONE', #175, #50, #84 ) ;
#43 = DIRECTION ( 'NONE',  ( 0.0000000000000000000, 0.0000000000000000000, 1.000000000000000000 ) ) ;
#44 = PERSON_AND_ORGANIZATION ( #77, #70 ) ;
#45 = APPROVAL ( #74, 'UNSPECIFIED' ) ;
#46 = DIRECTION ( 'NONE',  ( -0.0000000000000000000, -0.0000000000000000000, -1.000000000000000000 ) ) ;
#47 = PERSON_AND_ORGANIZATION_ROLE ( 'creator' ) ;
#48 = DIRECTION ( 'NONE',  ( 1.000000000000000000, 0.0000000000000000000, 0.0000000000000000000 ) ) ;
#49 = CARTESIAN_POINT ( 'NONE',  ( 0.0000000000000000000, 0.0000000000000000000, 0.0000000000000000000 ) ) ;
#50 = DIRECTION ( 'NONE',  ( 0.0000000000000000000, 0.0000000000000000000, 1.000000000000000000 ) ) ;
#51 = LOCAL_TIME ( 9, 16, 52.00000000000000000, #119 ) ;
#52 = LOCAL_TIME ( 9, 16, 52.00000000000000000, #16 ) ;
#53 = FACE_OUTER_BOUND ( 'NONE', #39, .T. ) ;
#54 = CC_DESIGN_DATE_AND_TIME_ASSIGNMENT ( #8, #120, ( #171 ) ) ;
#55 = APPROVAL_PERSON_ORGANIZATION ( #136, #155, #154 ) ;
#56 = FACE_OUTER_BOUND ( 'NONE', #170, .T. ) ;
#57 = AXIS2_PLACEMENT_3D ( 'NONE', #110, #46, #18 ) ;
#58 = ORIENTED_EDGE ( 'NONE', *, *, #112, .F. ) ;
#59 =( NAMED_UNIT ( * ) SI_UNIT ( $, .STERADIAN. ) SOLID_ANGLE_UNIT ( ) );
#60 = DIRECTION ( 'NONE',  ( 0.0000000000000000000, 0.0000000000000000000, 1.000000000000000000 ) ) ;
#61 = APPLICATION_CONTEXT ( 'configuration controlled 3d designs of mechanical parts and assemblies' ) ;
#62 = VERTEX_POINT ( 'NONE', #118 ) ;
#63 = CARTESIAN_POINT ( 'NONE',  ( 0.0000000000000000000, 0.0000000000000000000, 2.000000000000000000 ) ) ;
#64 = DIRECTION ( 'NONE',  ( 1.000000000000000000, 0.0000000000000000000, 0.0000000000000000000 ) ) ;
#65 = APPROVAL_PERSON_ORGANIZATION ( #14, #7, #33 ) ;
#66 = CIRCLE ( 'NONE', #125, 25.00000000000000000 ) ;
#67 = ORIENTED_EDGE ( 'NONE', *, *, #133, .F. ) ;
#68 = SECURITY_CLASSIFICATION_LEVEL ( 'unclassified' ) ;
#69 = AXIS2_PLACEMENT_3D ( 'NONE', #144, #3, #21 ) ;
#70 = ORGANIZATION ( 'UNSPECIFIED', 'UNSPECIFIED', '' ) ;
#71 = AXIS2_PLACEMENT_3D ( 'NONE', #83, #1, #64 ) ;
#72 = ADVANCED_FACE ( 'NONE', ( #56 ), #158, .T. ) ;
#73 = LOCAL_TIME ( 9, 16, 52.00000000000000000, #29 ) ;
#74 = APPROVAL_STATUS ( 'not_yet_approved' ) ;
#75 = DIRECTION ( 'NONE',  ( -1.000000000000000000, 0.0000000000000000000, 0.0000000000000000000 ) ) ;
#76 = PERSON_AND_ORGANIZATION ( #77, #70 ) ;
#77 = PERSON ( 'UNSPECIFIED', 'UNSPECIFIED', 'UNSPECIFIED', ('UNSPECIFIED'), ('UNSPECIFIED'), ('UNSPECIFIED') ) ;
#78 = MECHANICAL_CONTEXT ( 'NONE', #61, 'mechanical' ) ;
#79 = CARTESIAN_POINT ( 'NONE',  ( 25.00000000000000000, 3.061616997868383000E-015, 2.000000000000000000 ) ) ;
#80 = DIRECTION ( 'NONE',  ( 1.000000000000000000, 0.0000000000000000000, 0.0000000000000000000 ) ) ;
#81 = LINE ( 'NONE', #4, #12 ) ;
#82 = CARTESIAN_POINT ( 'NONE',  ( -25.00000000000000000, 0.0000000000000000000, 2.000000000000000000 ) ) ;
#83 = CARTESIAN_POINT ( 'NONE',  ( 0.0000000000000000000, 0.0000000000000000000, 0.0000000000000000000 ) ) ;
#84 = DIRECTION ( 'NONE',  ( 1.000000000000000000, 0.0000000000000000000, -0.0000000000000000000 ) ) ;
#85 = PRODUCT_DEFINITION_FORMATION_WITH_SPECIFIED_SOURCE ( 'ANY', '', #30, .NOT_KNOWN. ) ;
#86 = APPLICATION_CONTEXT ( 'configuration controlled 3d designs of mechanical parts and assemblies' ) ;
#87 = UNCERTAINTY_MEASURE_WITH_UNIT (LENGTH_MEASURE( 1.000000000000000100E-005 ), #95, 'distance_accuracy_value', 'NONE');
#88 = COORDINATED_UNIVERSAL_TIME_OFFSET ( 5, 0, .BEHIND. ) ;
#89 = VECTOR ( 'NONE', #98, 1000.000000000000000 ) ;
#90 = VERTEX_POINT ( 'NONE', #142 ) ;
#91 = PRODUCT_DEFINITION_SHAPE ( 'NONE', 'NONE',  #171 ) ;
#92 = PRODUCT_RELATED_PRODUCT_CATEGORY ( 'detail', '', ( #30 ) ) ;
#93 = ORIENTED_EDGE ( 'NONE', *, *, #115, .T. ) ;
#94 = DIRECTION ( 'NONE',  ( 1.000000000000000000, 0.0000000000000000000, 0.0000000000000000000 ) ) ;
#95 =( LENGTH_UNIT ( ) NAMED_UNIT ( * ) SI_UNIT ( .MILLI., .METRE. ) );
#96 = APPLICATION_PROTOCOL_DEFINITION ( 'international standard', 'config_control_design', 1994, #86 ) ;
#97 = DIRECTION ( 'NONE',  ( 1.000000000000000000, 0.0000000000000000000, -0.0000000000000000000 ) ) ;
#98 = DIRECTION ( 'NONE',  ( -0.0000000000000000000, -0.0000000000000000000, -1.000000000000000000 ) ) ;
#99 = APPROVAL_DATE_TIME ( #169, #155 ) ;
#100 = VERTEX_POINT ( 'NONE', #111 ) ;
#101 = CLOSED_SHELL ( 'NONE', ( #148, #108, #72, #162 ) ) ;
#102 = APPROVAL_STATUS ( 'not_yet_approved' ) ;
#103 = CALENDAR_DATE ( 2017, 24, 8 ) ;
#104 = CC_DESIGN_PERSON_AND_ORGANIZATION_ASSIGNMENT ( #76, #147, ( #85 ) ) ;
#105 = COORDINATED_UNIVERSAL_TIME_OFFSET ( 5, 0, .BEHIND. ) ;
#106 = DATE_AND_TIME ( #150, #73 ) ;
#107 = EDGE_CURVE ( 'NONE', #90, #62, #123, .T. ) ;
#108 = ADVANCED_FACE ( 'NONE', ( #26 ), #17, .T. ) ;
#109 = PERSON_AND_ORGANIZATION_ROLE ( 'design_owner' ) ;
#110 = CARTESIAN_POINT ( 'NONE',  ( 0.0000000000000000000, 0.0000000000000000000, 2.000000000000000000 ) ) ;
#111 = CARTESIAN_POINT ( 'NONE',  ( -25.00000000000000000, 0.0000000000000000000, 2.000000000000000000 ) ) ;
#112 = EDGE_CURVE ( 'NONE', #100, #90, #127, .T. ) ;
#113 = SECURITY_CLASSIFICATION ( '', '', #68 ) ;
#114 = ORIENTED_EDGE ( 'NONE', *, *, #107, .T. ) ;
#115 = EDGE_CURVE ( 'NONE', #62, #90, #117, .T. ) ;
#116 = APPROVAL_DATE_TIME ( #2, #7 ) ;
#117 = CIRCLE ( 'NONE', #71, 25.00000000000000000 ) ;
#118 = CARTESIAN_POINT ( 'NONE',  ( 25.00000000000000000, 3.061616997868383000E-015, 0.0000000000000000000 ) ) ;
#119 = COORDINATED_UNIVERSAL_TIME_OFFSET ( 5, 0, .BEHIND. ) ;
#120 = DATE_TIME_ROLE ( 'creation_date' ) ;
#121 = EDGE_CURVE ( 'NONE', #22, #62, #81, .T. ) ;
#122 = PERSON_AND_ORGANIZATION_ROLE ( 'creator' ) ;
#123 = CIRCLE ( 'NONE', #141, 25.00000000000000000 ) ;
#124 = CARTESIAN_POINT ( 'NONE',  ( 0.0000000000000000000, 0.0000000000000000000, 2.000000000000000000 ) ) ;
#125 = AXIS2_PLACEMENT_3D ( 'NONE', #174, #43, #80 ) ;
#126 = PERSON_AND_ORGANIZATION ( #77, #70 ) ;
#127 = LINE ( 'NONE', #82, #89 ) ;
#128 = AXIS2_PLACEMENT_3D ( 'NONE', #35, #60, #97 ) ;
#129 = SHAPE_DEFINITION_REPRESENTATION ( #91, #146 ) ;
#130 = CC_DESIGN_APPROVAL ( #45, ( #85 ) ) ;
#131 = ORIENTED_EDGE ( 'NONE', *, *, #133, .T. ) ;
#132 = ORIENTED_EDGE ( 'NONE', *, *, #107, .F. ) ;
#133 = EDGE_CURVE ( 'NONE', #22, #100, #156, .T. ) ;
#134 = DIRECTION ( 'NONE',  ( -0.0000000000000000000, -0.0000000000000000000, -1.000000000000000000 ) ) ;
#135 = DIRECTION ( 'NONE',  ( 0.0000000000000000000, 0.0000000000000000000, 1.000000000000000000 ) ) ;
#136 = PERSON_AND_ORGANIZATION ( #77, #70 ) ;
#137 = ORIENTED_EDGE ( 'NONE', *, *, #121, .F. ) ;
#138 = CC_DESIGN_PERSON_AND_ORGANIZATION_ASSIGNMENT ( #166, #109, ( #30 ) ) ;
#139 = CALENDAR_DATE ( 2017, 24, 8 ) ;
#140 = APPROVAL_PERSON_ORGANIZATION ( #172, #45, #161 ) ;
#141 = AXIS2_PLACEMENT_3D ( 'NONE', #49, #135, #94 ) ;
#142 = CARTESIAN_POINT ( 'NONE',  ( -25.00000000000000000, 0.0000000000000000000, 0.0000000000000000000 ) ) ;
#143 = CALENDAR_DATE ( 2017, 24, 8 ) ;
#144 = CARTESIAN_POINT ( 'NONE',  ( 0.0000000000000000000, 0.0000000000000000000, 0.0000000000000000000 ) ) ;
#145 = FACE_OUTER_BOUND ( 'NONE', #153, .T. ) ;
#146 = ADVANCED_BREP_SHAPE_REPRESENTATION ( '34600_36946', ( #13, #69 ), #23 ) ;
#147 = PERSON_AND_ORGANIZATION_ROLE ( 'design_supplier' ) ;
#148 = ADVANCED_FACE ( 'NONE', ( #53 ), #36, .T. ) ;
#149 = DIRECTION ( 'NONE',  ( -0.0000000000000000000, -0.0000000000000000000, -1.000000000000000000 ) ) ;
#150 = CALENDAR_DATE ( 2017, 24, 8 ) ;
#151 = AXIS2_PLACEMENT_3D ( 'NONE', #124, #163, #48 ) ;
#152 = DATE_AND_TIME ( #139, #160 ) ;
#153 = EDGE_LOOP ( 'NONE', ( #132, #20 ) ) ;
#154 = APPROVAL_ROLE ( '' ) ;
#155 = APPROVAL ( #102, 'UNSPECIFIED' ) ;
#156 = CIRCLE ( 'NONE', #151, 25.00000000000000000 ) ;
#157 = CC_DESIGN_DATE_AND_TIME_ASSIGNMENT ( #106, #9, ( #113 ) ) ;
#158 = PLANE ( 'NONE',  #42 ) ;
#159 = AXIS2_PLACEMENT_3D ( 'NONE', #63, #149, #75 ) ;
#160 = LOCAL_TIME ( 9, 16, 52.00000000000000000, #88 ) ;
#161 = APPROVAL_ROLE ( '' ) ;
#162 = ADVANCED_FACE ( 'NONE', ( #145 ), #164, .F. ) ;
#163 = DIRECTION ( 'NONE',  ( 0.0000000000000000000, 0.0000000000000000000, 1.000000000000000000 ) ) ;
#164 = PLANE ( 'NONE',  #128 ) ;
#165 = CC_DESIGN_APPROVAL ( #155, ( #113 ) ) ;
#166 = PERSON_AND_ORGANIZATION ( #77, #70 ) ;
#167 = ORIENTED_EDGE ( 'NONE', *, *, #5, .T. ) ;
#168 = DESIGN_CONTEXT ( 'detailed design', #86, 'design' ) ;
#169 = DATE_AND_TIME ( #103, #52 ) ;
#170 = EDGE_LOOP ( 'NONE', ( #167, #131 ) ) ;
#171 = PRODUCT_DEFINITION ( 'UNKNOWN', '', #85, #168 ) ;
#172 = PERSON_AND_ORGANIZATION ( #77, #70 ) ;
#173 = ORIENTED_EDGE ( 'NONE', *, *, #112, .T. ) ;
#174 = CARTESIAN_POINT ( 'NONE',  ( 0.0000000000000000000, 0.0000000000000000000, 2.000000000000000000 ) ) ;
#175 = CARTESIAN_POINT ( 'NONE',  ( 0.0000000000000000000, 0.0000000000000000000, 2.000000000000000000 ) ) ;
ENDSEC;
END-ISO-10303-21;
