ISO-10303-21;
HEADER;
FILE_DESCRIPTION (( 'STEP AP203' ),
    '1' );
FILE_NAME ('TTN049387-E0W.STEP',
    '2016-07-25T14:37:01',
    ( 'admin' ),
    ( '' ),
    'SwSTEP 2.0',
    'SolidWorks 2016',
    '' );
FILE_SCHEMA (( 'CONFIG_CONTROL_DESIGN' ));
ENDSEC;

DATA;
#1 = FACE_OUTER_BOUND ( 'NONE', #65, .T. ) ;
#2 = DESIGN_CONTEXT ( 'detailed design', #108, 'design' ) ;
#3 = CIRCLE ( 'NONE', #62, 118.2629133858267900 ) ;
#4 = LOCAL_TIME ( 10, 37, 1.000000000000000000, #132 ) ;
#5 = PERSON_AND_ORGANIZATION ( #289, #243 ) ;
#6 = ORIENTED_EDGE ( 'NONE', *, *, #101, .F. ) ;
#7 = LOCAL_TIME ( 10, 37, 1.000000000000000000, #189 ) ;
#8 = DIRECTION ( 'NONE',  ( -0.0000000000000000000, 3.061515884550008900E-016, -1.000000000000000000 ) ) ;
#9 = EDGE_CURVE ( 'NONE', #121, #11, #300, .T. ) ;
#10 = CALENDAR_DATE ( 2016, 25, 7 ) ;
#11 = VERTEX_POINT ( 'NONE', #290 ) ;
#12 = CC_DESIGN_PERSON_AND_ORGANIZATION_ASSIGNMENT ( #49, #214, ( #192 ) ) ;
#13 = CARTESIAN_POINT ( 'NONE',  ( 6.026805113914141100E-017, 0.4921259842519686800, -0.03996062992125976000 ) ) ;
#14 = CARTESIAN_POINT ( 'NONE',  ( 0.0000000000000000000, 1.224606353822386700E-017, -0.03208661417322866700 ) ) ;
#15 = DIRECTION ( 'NONE',  ( 0.0000000000000000000, 1.000000000000000000, 3.061515884555943100E-016 ) ) ;
#16 = ADVANCED_FACE ( 'NONE', ( #1 ), #34, .T. ) ;
#17 = DIRECTION ( 'NONE',  ( 0.0000000000000000000, 1.000000000000000000, 3.122502256758251800E-016 ) ) ;
#18 = CONICAL_SURFACE ( 'NONE', #213, 0.4921259842519686800, 0.7853981633974479500 ) ;
#19 = MANIFOLD_SOLID_BREP ( 'TTN049388-1-solid1', #284 ) ;
#20 =( GEOMETRIC_REPRESENTATION_CONTEXT ( 3 ) GLOBAL_UNCERTAINTY_ASSIGNED_CONTEXT ( ( #130 ) ) GLOBAL_UNIT_ASSIGNED_CONTEXT ( ( #137, #303, #162 ) ) REPRESENTATION_CONTEXT ( 'NONE', 'WORKASPACE' ) );
#21 = ORIENTED_EDGE ( 'NONE', *, *, #111, .F. ) ;
#22 = LINE ( 'NONE', #275, #28 ) ;
#23 = ORIENTED_EDGE ( 'NONE', *, *, #141, .T. ) ;
#24 = DIRECTION ( 'NONE',  ( 1.000000000000000000, 0.0000000000000000000, -0.0000000000000000000 ) ) ;
#25 = CYLINDRICAL_SURFACE ( 'NONE', #159, 0.4999999999999999400 ) ;
#26 = DATE_TIME_ROLE ( 'creation_date' ) ;
#27 = LOCAL_TIME ( 10, 37, 1.000000000000000000, #187 ) ;
#28 = VECTOR ( 'NONE', #124, 39.37007874015748100 ) ;
#29 = CC_DESIGN_APPROVAL ( #152, ( #136 ) ) ;
#30 = ORIENTED_EDGE ( 'NONE', *, *, #141, .F. ) ;
#31 = AXIS2_PLACEMENT_3D ( 'NONE', #181, #79, #39 ) ;
#32 = ADVANCED_FACE ( 'NONE', ( #293 ), #288, .T. ) ;
#33 = EDGE_LOOP ( 'NONE', ( #240, #179, #155, #222 ) ) ;
#34 = SPHERICAL_SURFACE ( 'NONE', #292, 118.2629133858267900 ) ;
#35 = DIRECTION ( 'NONE',  ( 0.0000000000000000000, 1.000000000000000000, 3.073328992872296900E-016 ) ) ;
#36 = CARTESIAN_POINT ( 'NONE',  ( 0.0000000000000000000, -0.4921259842519686800, -0.03996062992126006600 ) ) ;
#37 = AXIS2_PLACEMENT_3D ( 'NONE', #166, #116, #219 ) ;
#38 = DIRECTION ( 'NONE',  ( 0.0000000000000000000, 0.7056104208013368500, -0.7085999816938750600 ) ) ;
#39 = DIRECTION ( 'NONE',  ( 0.0000000000000000000, 1.000000000000000000, 2.956772610938677200E-016 ) ) ;
#40 = ORIENTED_EDGE ( 'NONE', *, *, #298, .T. ) ;
#41 = CC_DESIGN_APPROVAL ( #258, ( #192 ) ) ;
#42 = CALENDAR_DATE ( 2016, 25, 7 ) ;
#43 = LINE ( 'NONE', #13, #97 ) ;
#44 = APPROVAL_ROLE ( '' ) ;
#45 = ADVANCED_BREP_SHAPE_REPRESENTATION ( 'TTN049387-E0W', ( #19, #206 ), #20 ) ;
#46 = CIRCLE ( 'NONE', #59, 0.4999999999999999400 ) ;
#47 = ORIENTED_EDGE ( 'NONE', *, *, #236, .T. ) ;
#48 = DIRECTION ( 'NONE',  ( 0.0000000000000000000, -1.000000000000000000, -3.073328992872296900E-016 ) ) ;
#49 = PERSON_AND_ORGANIZATION ( #289, #243 ) ;
#50 = ADVANCED_FACE ( 'NONE', ( #91 ), #25, .T. ) ;
#51 = EDGE_CURVE ( 'NONE', #281, #246, #138, .T. ) ;
#52 = CARTESIAN_POINT ( 'NONE',  ( 0.0000000000000000000, -2.173332510540153000E-014, 0.03893668524936416700 ) ) ;
#53 = CARTESIAN_POINT ( 'NONE',  ( 0.0000000000000000000, -7.077078675951204400E-018, 0.03102964242257139800 ) ) ;
#54 = DIRECTION ( 'NONE',  ( 0.0000000000000000000, 1.000000000000000000, 3.073328992872296900E-016 ) ) ;
#55 = DIRECTION ( 'NONE',  ( 0.0000000000000000000, -3.061515884555941700E-016, 1.000000000000000000 ) ) ;
#56 = DIRECTION ( 'NONE',  ( -0.0000000000000000000, 3.061515884555943100E-016, -1.000000000000000000 ) ) ;
#57 = PERSON_AND_ORGANIZATION ( #289, #243 ) ;
#58 = DIRECTION ( 'NONE',  ( 0.0000000000000000000, 0.0000000000000000000, 1.000000000000000000 ) ) ;
#59 = AXIS2_PLACEMENT_3D ( 'NONE', #14, #174, #35 ) ;
#60 = DIRECTION ( 'NONE',  ( 0.0000000000000000000, 0.0000000000000000000, 1.000000000000000000 ) ) ;
#61 = PERSON_AND_ORGANIZATION_ROLE ( 'design_supplier' ) ;
#62 = AXIS2_PLACEMENT_3D ( 'NONE', #102, #280, #58 ) ;
#63 = DATE_AND_TIME ( #10, #4 ) ;
#64 = FACE_OUTER_BOUND ( 'NONE', #133, .T. ) ;
#65 = EDGE_LOOP ( 'NONE', ( #172, #198, #235 ) ) ;
#66 = CARTESIAN_POINT ( 'NONE',  ( 0.0000000000000000000, -1.449212367096982000E-014, 0.03996062992125063600 ) ) ;
#67 = DATE_AND_TIME ( #42, #7 ) ;
#68 = VECTOR ( 'NONE', #56, 39.37007874015748100 ) ;
#69 = EDGE_CURVE ( 'NONE', #98, #114, #249, .T. ) ;
#70 = VERTEX_POINT ( 'NONE', #66 ) ;
#71 = DIRECTION ( 'NONE',  ( 0.0000000000000000000, 1.000000000000000000, 3.122500147169733600E-016 ) ) ;
#72 = DIRECTION ( 'NONE',  ( 0.0000000000000000000, -1.000000000000000000, -3.073328992872296900E-016 ) ) ;
#73 = LINE ( 'NONE', #279, #140 ) ;
#74 = DIRECTION ( 'NONE',  ( -0.0000000000000000000, 3.061515884550008900E-016, -1.000000000000000000 ) ) ;
#75 = EDGE_LOOP ( 'NONE', ( #6, #170, #218, #103 ) ) ;
#76 = CARTESIAN_POINT ( 'NONE',  ( 0.0000000000000000000, 1.465670596700799700E-017, -0.03996062992125991300 ) ) ;
#77 = ADVANCED_FACE ( 'NONE', ( #143 ), #18, .T. ) ;
#78 = AXIS2_PLACEMENT_3D ( 'NONE', #53, #224, #72 ) ;
#79 = DIRECTION ( 'NONE',  ( 1.000000000000000000, 0.0000000000000000000, -0.0000000000000000000 ) ) ;
#80 = APPROVAL_DATE_TIME ( #63, #152 ) ;
#81 = CARTESIAN_POINT ( 'NONE',  ( 6.123233995736764800E-017, -0.4999999999999999400, -0.03208661417322882000 ) ) ;
#82 = CIRCLE ( 'NONE', #177, 118.2629133858267900 ) ;
#83 = AXIS2_PLACEMENT_3D ( 'NONE', #205, #55, #278 ) ;
#84 = DIRECTION ( 'NONE',  ( 0.0000000000000000000, 1.000000000000000000, 3.073328992872296900E-016 ) ) ;
#85 = DIRECTION ( 'NONE',  ( 0.0000000000000000000, -3.061515884550008900E-016, 1.000000000000000000 ) ) ;
#86 = MECHANICAL_CONTEXT ( 'NONE', #212, 'mechanical' ) ;
#87 = CALENDAR_DATE ( 2016, 25, 7 ) ;
#88 = PERSON_AND_ORGANIZATION_ROLE ( 'classification_officer' ) ;
#89 = EDGE_CURVE ( 'NONE', #11, #121, #110, .T. ) ;
#90 = PERSON_AND_ORGANIZATION ( #289, #243 ) ;
#91 = FACE_OUTER_BOUND ( 'NONE', #191, .T. ) ;
#92 = CARTESIAN_POINT ( 'NONE',  ( 0.0000000000000000000, 1.447274020069774400E-014, -118.2229527559055400 ) ) ;
#93 = DIRECTION ( 'NONE',  ( 0.0000000000000000000, -3.061515884555941700E-016, 1.000000000000000000 ) ) ;
#94 = DIRECTION ( 'NONE',  ( 8.641235432793737500E-017, -0.7056104208013364000, -0.7085999816938755000 ) ) ;
#95 = DIRECTION ( 'NONE',  ( -0.0000000000000000000, 3.061515884555943100E-016, -1.000000000000000000 ) ) ;
#96 = CALENDAR_DATE ( 2016, 25, 7 ) ;
#97 = VECTOR ( 'NONE', #200, 39.37007874015748100 ) ;
#98 = VERTEX_POINT ( 'NONE', #173 ) ;
#99 = DIRECTION ( 'NONE',  ( 0.0000000000000000000, 1.000000000000000000, 3.122502256758251800E-016 ) ) ;
#100 = LOCAL_TIME ( 10, 37, 1.000000000000000000, #120 ) ;
#101 = EDGE_CURVE ( 'NONE', #98, #11, #269, .T. ) ;
#102 = CARTESIAN_POINT ( 'NONE',  ( 0.0000000000000000000, 1.447274020069774400E-014, -118.2229527559055400 ) ) ;
#103 = ORIENTED_EDGE ( 'NONE', *, *, #89, .F. ) ;
#104 = CARTESIAN_POINT ( 'NONE',  ( 0.0000000000000000000, -7.077078675955196500E-018, 0.03102964242257139800 ) ) ;
#105 = EDGE_LOOP ( 'NONE', ( #30, #127, #135, #21 ) ) ;
#106 = CONICAL_SURFACE ( 'NONE', #207, 0.4999999999999999400, 0.7832842230431215100 ) ;
#107 = ORIENTED_EDGE ( 'NONE', *, *, #175, .F. ) ;
#108 = APPLICATION_CONTEXT ( 'configuration controlled 3d designs of mechanical parts and assemblies' ) ;
#109 = APPROVAL_STATUS ( 'not_yet_approved' ) ;
#110 = CIRCLE ( 'NONE', #78, 0.4999999999999999400 ) ;
#111 = EDGE_CURVE ( 'NONE', #246, #281, #46, .T. ) ;
#112 = SHAPE_DEFINITION_REPRESENTATION ( #171, #45 ) ;
#113 = PERSON_AND_ORGANIZATION ( #289, #243 ) ;
#114 = VERTEX_POINT ( 'NONE', #248 ) ;
#115 = CC_DESIGN_PERSON_AND_ORGANIZATION_ASSIGNMENT ( #229, #61, ( #192 ) ) ;
#116 = DIRECTION ( 'NONE',  ( 0.0000000000000000000, -3.061515884555941700E-016, 1.000000000000000000 ) ) ;
#117 = APPROVAL_PERSON_ORGANIZATION ( #57, #184, #287 ) ;
#118 = ORIENTED_EDGE ( 'NONE', *, *, #259, .F. ) ;
#119 = SPHERICAL_SURFACE ( 'NONE', #31, 118.2629133858267900 ) ;
#120 = COORDINATED_UNIVERSAL_TIME_OFFSET ( 5, 0, .BEHIND. ) ;
#121 = VERTEX_POINT ( 'NONE', #122 ) ;
#122 = CARTESIAN_POINT ( 'NONE',  ( 0.0000000000000000000, 0.4999999999999999400, 0.03102964242257155400 ) ) ;
#123 = CARTESIAN_POINT ( 'NONE',  ( 0.0000000000000000000, 1.447274020069774400E-014, -118.2229527559055400 ) ) ;
#124 = DIRECTION ( 'NONE',  ( -0.0000000000000000000, 3.061515884555943100E-016, -1.000000000000000000 ) ) ;
#125 = CARTESIAN_POINT ( 'NONE',  ( 0.0000000000000000000, 0.4999999999999999400, 0.03102964242257155400 ) ) ;
#126 = AXIS2_PLACEMENT_3D ( 'NONE', #193, #8, #48 ) ;
#127 = ORIENTED_EDGE ( 'NONE', *, *, #236, .F. ) ;
#128 = DIRECTION ( 'NONE',  ( 0.0000000000000000000, -0.7071067811865475700, 0.7071067811865474600 ) ) ;
#129 = ORIENTED_EDGE ( 'NONE', *, *, #261, .F. ) ;
#130 = UNCERTAINTY_MEASURE_WITH_UNIT (LENGTH_MEASURE( 1.000000000000000100E-005 ), #137, 'distance_accuracy_value', 'NONE');
#131 = APPROVAL_PERSON_ORGANIZATION ( #197, #258, #44 ) ;
#132 = COORDINATED_UNIVERSAL_TIME_OFFSET ( 5, 0, .BEHIND. ) ;
#133 = EDGE_LOOP ( 'NONE', ( #47, #264 ) ) ;
#134 = SECURITY_CLASSIFICATION ( '', '', #242 ) ;
#135 = ORIENTED_EDGE ( 'NONE', *, *, #259, .T. ) ;
#136 = PRODUCT_DEFINITION ( 'UNKNOWN', '', #192, #2 ) ;
#137 =( CONVERSION_BASED_UNIT ( 'INCH', #251 ) LENGTH_UNIT ( ) NAMED_UNIT ( #220 ) );
#138 = CIRCLE ( 'NONE', #37, 0.4999999999999999400 ) ;
#139 = APPROVAL_STATUS ( 'not_yet_approved' ) ;
#140 = VECTOR ( 'NONE', #128, 39.37007874015748100 ) ;
#141 = EDGE_CURVE ( 'NONE', #291, #246, #43, .T. ) ;
#142 = EDGE_LOOP ( 'NONE', ( #107, #23, #157, #118 ) ) ;
#143 = FACE_OUTER_BOUND ( 'NONE', #105, .T. ) ;
#144 = EDGE_CURVE ( 'NONE', #70, #98, #82, .T. ) ;
#145 = ADVANCED_FACE ( 'NONE', ( #204 ), #215, .T. ) ;
#146 = ORIENTED_EDGE ( 'NONE', *, *, #277, .T. ) ;
#147 = APPROVAL_PERSON_ORGANIZATION ( #267, #152, #304 ) ;
#148 = VERTEX_POINT ( 'NONE', #36 ) ;
#149 = CC_DESIGN_PERSON_AND_ORGANIZATION_ASSIGNMENT ( #90, #88, ( #134 ) ) ;
#150 = CC_DESIGN_PERSON_AND_ORGANIZATION_ASSIGNMENT ( #113, #164, ( #136 ) ) ;
#151 = DIRECTION ( 'NONE',  ( -1.224646799147353000E-016, 1.000000000000000000, 0.0000000000000000000 ) ) ;
#152 = APPROVAL ( #139, 'UNSPECIFIED' ) ;
#153 = DIRECTION ( 'NONE',  ( -0.0000000000000000000, 3.061515884555943100E-016, -1.000000000000000000 ) ) ;
#154 = COORDINATED_UNIVERSAL_TIME_OFFSET ( 5, 0, .BEHIND. ) ;
#155 = ORIENTED_EDGE ( 'NONE', *, *, #9, .F. ) ;
#156 = DIRECTION ( 'NONE',  ( -0.0000000000000000000, 3.061515884555943100E-016, -1.000000000000000000 ) ) ;
#157 = ORIENTED_EDGE ( 'NONE', *, *, #51, .F. ) ;
#158 = ADVANCED_FACE ( 'NONE', ( #272 ), #106, .T. ) ;
#159 = AXIS2_PLACEMENT_3D ( 'NONE', #226, #180, #244 ) ;
#160 = DIRECTION ( 'NONE',  ( 0.0000000000000000000, 1.000000000000000000, 2.956772610938677200E-016 ) ) ;
#161 = FACE_OUTER_BOUND ( 'NONE', #257, .T. ) ;
#162 =( NAMED_UNIT ( * ) SI_UNIT ( $, .STERADIAN. ) SOLID_ANGLE_UNIT ( ) );
#163 = EDGE_CURVE ( 'NONE', #11, #281, #22, .T. ) ;
#164 = PERSON_AND_ORGANIZATION_ROLE ( 'creator' ) ;
#165 = ORIENTED_EDGE ( 'NONE', *, *, #89, .T. ) ;
#166 = CARTESIAN_POINT ( 'NONE',  ( 0.0000000000000000000, 1.224606353822386700E-017, -0.03208661417322866700 ) ) ;
#167 = CC_DESIGN_DATE_AND_TIME_ASSIGNMENT ( #67, #266, ( #134 ) ) ;
#168 = ORIENTED_EDGE ( 'NONE', *, *, #163, .F. ) ;
#169 = ADVANCED_FACE ( 'NONE', ( #64 ), #295, .T. ) ;
#170 = ORIENTED_EDGE ( 'NONE', *, *, #298, .F. ) ;
#171 = PRODUCT_DEFINITION_SHAPE ( 'NONE', 'NONE',  #136 ) ;
#172 = ORIENTED_EDGE ( 'NONE', *, *, #277, .F. ) ;
#173 = CARTESIAN_POINT ( 'NONE',  ( 6.026809185668482100E-017, -0.4921263167359639600, 0.03893668524936409100 ) ) ;
#174 = DIRECTION ( 'NONE',  ( 0.0000000000000000000, -3.061515884555941700E-016, 1.000000000000000000 ) ) ;
#175 = EDGE_CURVE ( 'NONE', #291, #148, #250, .T. ) ;
#176 = DIRECTION ( 'NONE',  ( 0.0000000000000000000, 1.000000000000000000, 3.073328992872296900E-016 ) ) ;
#177 = AXIS2_PLACEMENT_3D ( 'NONE', #123, #294, #151 ) ;
#178 = ORIENTED_EDGE ( 'NONE', *, *, #144, .F. ) ;
#179 = ORIENTED_EDGE ( 'NONE', *, *, #101, .T. ) ;
#180 = DIRECTION ( 'NONE',  ( -0.0000000000000000000, 3.061515884555943100E-016, -1.000000000000000000 ) ) ;
#181 = CARTESIAN_POINT ( 'NONE',  ( 0.0000000000000000000, 1.447274020069774400E-014, -118.2229527559055400 ) ) ;
#182 = LOCAL_TIME ( 10, 37, 1.000000000000000000, #154 ) ;
#183 = CIRCLE ( 'NONE', #230, 0.4921263167366050600 ) ;
#184 = APPROVAL ( #109, 'UNSPECIFIED' ) ;
#185 = ORIENTED_EDGE ( 'NONE', *, *, #163, .T. ) ;
#186 = CIRCLE ( 'NONE', #216, 0.4921259842519686800 ) ;
#187 = COORDINATED_UNIVERSAL_TIME_OFFSET ( 5, 0, .BEHIND. ) ;
#188 = APPLICATION_PROTOCOL_DEFINITION ( 'international standard', 'config_control_design', 1994, #212 ) ;
#189 = COORDINATED_UNIVERSAL_TIME_OFFSET ( 5, 0, .BEHIND. ) ;
#190 = APPROVAL_STATUS ( 'not_yet_approved' ) ;
#191 = EDGE_LOOP ( 'NONE', ( #194, #185, #210, #129 ) ) ;
#192 = PRODUCT_DEFINITION_FORMATION_WITH_SPECIFIED_SOURCE ( 'ANY', '', #238, .NOT_KNOWN. ) ;
#193 = CARTESIAN_POINT ( 'NONE',  ( 0.0000000000000000000, -7.077078675951204400E-018, 0.03102964242257139800 ) ) ;
#194 = ORIENTED_EDGE ( 'NONE', *, *, #9, .T. ) ;
#195 = AXIS2_PLACEMENT_3D ( 'NONE', #104, #282, #84 ) ;
#196 = APPROVAL_DATE_TIME ( #211, #258 ) ;
#197 = PERSON_AND_ORGANIZATION ( #289, #243 ) ;
#198 = ORIENTED_EDGE ( 'NONE', *, *, #144, .T. ) ;
#199 = CARTESIAN_POINT ( 'NONE',  ( 6.123233995736764800E-017, -0.4999999999999999400, 0.03102964242257124500 ) ) ;
#200 = DIRECTION ( 'NONE',  ( 8.659560562354930400E-017, 0.7071067811865471300, 0.7071067811865479100 ) ) ;
#201 = CC_DESIGN_APPROVAL ( #184, ( #134 ) ) ;
#202 = CARTESIAN_POINT ( 'NONE',  ( 0.0000000000000000000, -7.077078675955196500E-018, 0.03102964242257139800 ) ) ;
#203 = CARTESIAN_POINT ( 'NONE',  ( 0.0000000000000000000, 0.4999999999999999400, -0.03208661417322851400 ) ) ;
#204 = FACE_OUTER_BOUND ( 'NONE', #225, .T. ) ;
#205 = CARTESIAN_POINT ( 'NONE',  ( 0.0000000000000000000, 1.465670596700799700E-017, -0.03996062992125991300 ) ) ;
#206 = AXIS2_PLACEMENT_3D ( 'NONE', #273, #60, #241 ) ;
#207 = AXIS2_PLACEMENT_3D ( 'NONE', #202, #74, #176 ) ;
#208 = CARTESIAN_POINT ( 'NONE',  ( 6.075019554825452300E-017, 0.4921259842519686800, -0.03996062992125976000 ) ) ;
#209 = CONICAL_SURFACE ( 'NONE', #83, 0.4921259842519686800, 0.7853981633974479500 ) ;
#210 = ORIENTED_EDGE ( 'NONE', *, *, #51, .T. ) ;
#211 = DATE_AND_TIME ( #96, #27 ) ;
#212 = APPLICATION_CONTEXT ( 'configuration controlled 3d designs of mechanical parts and assemblies' ) ;
#213 = AXIS2_PLACEMENT_3D ( 'NONE', #247, #93, #274 ) ;
#214 = PERSON_AND_ORGANIZATION_ROLE ( 'creator' ) ;
#215 = CYLINDRICAL_SURFACE ( 'NONE', #221, 0.4999999999999999400 ) ;
#216 = AXIS2_PLACEMENT_3D ( 'NONE', #296, #156, #17 ) ;
#217 = CC_DESIGN_SECURITY_CLASSIFICATION ( #134, ( #192 ) ) ;
#218 = ORIENTED_EDGE ( 'NONE', *, *, #252, .T. ) ;
#219 = DIRECTION ( 'NONE',  ( 0.0000000000000000000, 1.000000000000000000, 3.073328992872296900E-016 ) ) ;
#220 = DIMENSIONAL_EXPONENTS ( 1.000000000000000000, 0.0000000000000000000, 0.0000000000000000000, 0.0000000000000000000, 0.0000000000000000000, 0.0000000000000000000, 0.0000000000000000000 ) ;
#221 = AXIS2_PLACEMENT_3D ( 'NONE', #227, #95, #54 ) ;
#222 = ORIENTED_EDGE ( 'NONE', *, *, #252, .F. ) ;
#223 = DIRECTION ( 'NONE',  ( 0.0000000000000000000, -3.061515884550008900E-016, 1.000000000000000000 ) ) ;
#224 = DIRECTION ( 'NONE',  ( -0.0000000000000000000, 3.061515884550008900E-016, -1.000000000000000000 ) ) ;
#225 = EDGE_LOOP ( 'NONE', ( #168, #165, #265, #233 ) ) ;
#226 = CARTESIAN_POINT ( 'NONE',  ( 0.0000000000000000000, 1.465670596700797600E-017, -0.03996062992125983700 ) ) ;
#227 = CARTESIAN_POINT ( 'NONE',  ( 0.0000000000000000000, 1.465670596700797600E-017, -0.03996062992125983700 ) ) ;
#228 = CARTESIAN_POINT ( 'NONE',  ( 0.0000000000000000000, 1.465670596700799700E-017, -0.03996062992125991300 ) ) ;
#229 = PERSON_AND_ORGANIZATION ( #289, #243 ) ;
#230 = AXIS2_PLACEMENT_3D ( 'NONE', #239, #85, #260 ) ;
#231 = LINE ( 'NONE', #232, #68 ) ;
#232 = CARTESIAN_POINT ( 'NONE',  ( 0.0000000000000000000, 0.4999999999999999400, -0.03996062992125968400 ) ) ;
#233 = ORIENTED_EDGE ( 'NONE', *, *, #111, .T. ) ;
#234 = PRODUCT_RELATED_PRODUCT_CATEGORY ( 'detail', '', ( #238 ) ) ;
#235 = ORIENTED_EDGE ( 'NONE', *, *, #69, .T. ) ;
#236 = EDGE_CURVE ( 'NONE', #148, #291, #186, .T. ) ;
#237 = FACE_OUTER_BOUND ( 'NONE', #142, .T. ) ;
#238 = PRODUCT ( 'TTN049387-E0W', 'TTN049387-E0W', '', ( #86 ) ) ;
#239 = CARTESIAN_POINT ( 'NONE',  ( 0.0000000000000000000, -2.173332510540153000E-014, 0.03893668524936416700 ) ) ;
#240 = ORIENTED_EDGE ( 'NONE', *, *, #69, .F. ) ;
#241 = DIRECTION ( 'NONE',  ( 1.000000000000000000, 0.0000000000000000000, 0.0000000000000000000 ) ) ;
#242 = SECURITY_CLASSIFICATION_LEVEL ( 'unclassified' ) ;
#243 = ORGANIZATION ( 'UNSPECIFIED', 'UNSPECIFIED', '' ) ;
#244 = DIRECTION ( 'NONE',  ( 0.0000000000000000000, 1.000000000000000000, 3.073328992872296900E-016 ) ) ;
#245 = VECTOR ( 'NONE', #38, 39.37007874015748900 ) ;
#246 = VERTEX_POINT ( 'NONE', #203 ) ;
#247 = CARTESIAN_POINT ( 'NONE',  ( 0.0000000000000000000, 1.465670596700799700E-017, -0.03996062992125991300 ) ) ;
#248 = CARTESIAN_POINT ( 'NONE',  ( 0.0000000000000000000, 0.4921263167359204400, 0.03893668524936424300 ) ) ;
#249 = CIRCLE ( 'NONE', #254, 0.4921263167366050600 ) ;
#250 = CIRCLE ( 'NONE', #256, 0.4921259842519686800 ) ;
#251 = LENGTH_MEASURE_WITH_UNIT ( LENGTH_MEASURE( 0.02539999999999999900 ), #283 );
#252 = EDGE_CURVE ( 'NONE', #114, #121, #301, .T. ) ;
#253 = ADVANCED_FACE ( 'NONE', ( #237 ), #209, .T. ) ;
#254 = AXIS2_PLACEMENT_3D ( 'NONE', #52, #223, #71 ) ;
#255 = DIRECTION ( 'NONE',  ( -0.0000000000000000000, 3.061515884555943100E-016, -1.000000000000000000 ) ) ;
#256 = AXIS2_PLACEMENT_3D ( 'NONE', #76, #255, #99 ) ;
#257 = EDGE_LOOP ( 'NONE', ( #178, #146, #40 ) ) ;
#258 = APPROVAL ( #190, 'UNSPECIFIED' ) ;
#259 = EDGE_CURVE ( 'NONE', #148, #281, #73, .T. ) ;
#260 = DIRECTION ( 'NONE',  ( 0.0000000000000000000, 1.000000000000000000, 3.122500147169733600E-016 ) ) ;
#261 = EDGE_CURVE ( 'NONE', #121, #246, #231, .T. ) ;
#262 = CALENDAR_DATE ( 2016, 25, 7 ) ;
#263 = PERSON_AND_ORGANIZATION_ROLE ( 'design_owner' ) ;
#264 = ORIENTED_EDGE ( 'NONE', *, *, #175, .T. ) ;
#265 = ORIENTED_EDGE ( 'NONE', *, *, #261, .T. ) ;
#266 = DATE_TIME_ROLE ( 'classification_date' ) ;
#267 = PERSON_AND_ORGANIZATION ( #289, #243 ) ;
#268 = DATE_AND_TIME ( #262, #182 ) ;
#269 = LINE ( 'NONE', #199, #297 ) ;
#270 = ADVANCED_FACE ( 'NONE', ( #161 ), #119, .T. ) ;
#271 = DATE_AND_TIME ( #87, #100 ) ;
#272 = FACE_OUTER_BOUND ( 'NONE', #33, .T. ) ;
#273 = CARTESIAN_POINT ( 'NONE',  ( 0.0000000000000000000, 0.0000000000000000000, 0.0000000000000000000 ) ) ;
#274 = DIRECTION ( 'NONE',  ( 0.0000000000000000000, -1.000000000000000000, -3.122502256758251800E-016 ) ) ;
#275 = CARTESIAN_POINT ( 'NONE',  ( 6.123233995736764800E-017, -0.4999999999999999400, -0.03996062992125998900 ) ) ;
#276 = APPROVAL_DATE_TIME ( #268, #184 ) ;
#277 = EDGE_CURVE ( 'NONE', #70, #114, #3, .T. ) ;
#278 = DIRECTION ( 'NONE',  ( 0.0000000000000000000, -1.000000000000000000, -3.122502256758251800E-016 ) ) ;
#279 = CARTESIAN_POINT ( 'NONE',  ( 0.0000000000000000000, -0.4921259842519686800, -0.03996062992126006600 ) ) ;
#280 = DIRECTION ( 'NONE',  ( -1.000000000000000000, 0.0000000000000000000, 0.0000000000000000000 ) ) ;
#281 = VERTEX_POINT ( 'NONE', #81 ) ;
#282 = DIRECTION ( 'NONE',  ( -0.0000000000000000000, 3.061515884550008900E-016, -1.000000000000000000 ) ) ;
#283 =( LENGTH_UNIT ( ) NAMED_UNIT ( * ) SI_UNIT ( $, .METRE. ) );
#284 = CLOSED_SHELL ( 'NONE', ( #158, #253, #50, #16, #169, #270, #145, #77, #32 ) ) ;
#285 = APPLICATION_PROTOCOL_DEFINITION ( 'international standard', 'config_control_design', 1994, #108 ) ;
#286 = AXIS2_PLACEMENT_3D ( 'NONE', #228, #153, #15 ) ;
#287 = APPROVAL_ROLE ( '' ) ;
#288 = CONICAL_SURFACE ( 'NONE', #195, 0.4999999999999999400, 0.7832842230431215100 ) ;
#289 = PERSON ( 'UNSPECIFIED', 'UNSPECIFIED', 'UNSPECIFIED', ('UNSPECIFIED'), ('UNSPECIFIED'), ('UNSPECIFIED') ) ;
#290 = CARTESIAN_POINT ( 'NONE',  ( 6.123233995736764800E-017, -0.4999999999999999400, 0.03102964242257124500 ) ) ;
#291 = VERTEX_POINT ( 'NONE', #208 ) ;
#292 = AXIS2_PLACEMENT_3D ( 'NONE', #92, #24, #160 ) ;
#293 = FACE_OUTER_BOUND ( 'NONE', #75, .T. ) ;
#294 = DIRECTION ( 'NONE',  ( 1.000000000000000000, 1.224646799147353200E-016, 3.749275628560213600E-032 ) ) ;
#295 = PLANE ( 'NONE',  #286 ) ;
#296 = CARTESIAN_POINT ( 'NONE',  ( 0.0000000000000000000, 1.465670596700799700E-017, -0.03996062992125991300 ) ) ;
#297 = VECTOR ( 'NONE', #94, 39.37007874015748900 ) ;
#298 = EDGE_CURVE ( 'NONE', #114, #98, #183, .T. ) ;
#299 = CC_DESIGN_DATE_AND_TIME_ASSIGNMENT ( #271, #26, ( #136 ) ) ;
#300 = CIRCLE ( 'NONE', #126, 0.4999999999999999400 ) ;
#301 = LINE ( 'NONE', #125, #245 ) ;
#302 = CC_DESIGN_PERSON_AND_ORGANIZATION_ASSIGNMENT ( #5, #263, ( #238 ) ) ;
#303 =( NAMED_UNIT ( * ) PLANE_ANGLE_UNIT ( ) SI_UNIT ( $, .RADIAN. ) );
#304 = APPROVAL_ROLE ( '' ) ;
ENDSEC;
END-ISO-10303-21;
