ISO-10303-21;
HEADER;
FILE_DESCRIPTION (( 'STEP AP203' ),
    '1' );
FILE_NAME ('34601_34601.step',
    '2017-08-24T13:13:27',
    ( '' ),
    ( '' ),
    'SwSTEP 2.0',
    'SolidWorks 2016',
    '' );
FILE_SCHEMA (( 'CONFIG_CONTROL_DESIGN' ));
ENDSEC;

DATA;
#1 = CC_DESIGN_DATE_AND_TIME_ASSIGNMENT ( #137, #26, ( #112 ) ) ;
#2 = AXIS2_PLACEMENT_3D ( 'NONE', #58, #32, #150 ) ;
#3 = APPLICATION_CONTEXT ( 'configuration controlled 3d designs of mechanical parts and assemblies' ) ;
#4 = VERTEX_POINT ( 'NONE', #132 ) ;
#5 = PLANE ( 'NONE',  #40 ) ;
#6 = ORIENTED_EDGE ( 'NONE', *, *, #57, .T. ) ;
#7 = AXIS2_PLACEMENT_3D ( 'NONE', #56, #157, #142 ) ;
#8 = DIRECTION ( 'NONE',  ( 1.000000000000000000, 0.0000000000000000000, 0.0000000000000000000 ) ) ;
#9 = ORIENTED_EDGE ( 'NONE', *, *, #72, .F. ) ;
#10 = APPROVAL ( #122, 'UNSPECIFIED' ) ;
#11 = EDGE_LOOP ( 'NONE', ( #109, #9 ) ) ;
#12 = CARTESIAN_POINT ( 'NONE',  ( 0.0000000000000000000, 0.0000000000000000000, 0.0000000000000000000 ) ) ;
#13 = VERTEX_POINT ( 'NONE', #55 ) ;
#14 = LOCAL_TIME ( 9, 13, 27.00000000000000000, #90 ) ;
#15 = ORGANIZATION ( 'UNSPECIFIED', 'UNSPECIFIED', '' ) ;
#16 = APPROVAL ( #19, 'UNSPECIFIED' ) ;
#17 = APPLICATION_CONTEXT ( 'configuration controlled 3d designs of mechanical parts and assemblies' ) ;
#18 = DATE_AND_TIME ( #95, #65 ) ;
#19 = APPROVAL_STATUS ( 'not_yet_approved' ) ;
#20 =( GEOMETRIC_REPRESENTATION_CONTEXT ( 3 ) GLOBAL_UNCERTAINTY_ASSIGNED_CONTEXT ( ( #29 ) ) GLOBAL_UNIT_ASSIGNED_CONTEXT ( ( #117, #34, #50 ) ) REPRESENTATION_CONTEXT ( 'NONE', 'WORKASPACE' ) );
#21 = APPROVAL_ROLE ( '' ) ;
#22 = ADVANCED_FACE ( 'NONE', ( #103 ), #163, .T. ) ;
#23 = CC_DESIGN_APPROVAL ( #16, ( #128 ) ) ;
#24 = FACE_OUTER_BOUND ( 'NONE', #62, .T. ) ;
#25 = DIRECTION ( 'NONE',  ( -1.000000000000000000, 0.0000000000000000000, 0.0000000000000000000 ) ) ;
#26 = DATE_TIME_ROLE ( 'classification_date' ) ;
#27 = LOCAL_TIME ( 9, 13, 27.00000000000000000, #130 ) ;
#28 = CC_DESIGN_PERSON_AND_ORGANIZATION_ASSIGNMENT ( #76, #54, ( #172 ) ) ;
#29 = UNCERTAINTY_MEASURE_WITH_UNIT (LENGTH_MEASURE( 1.000000000000000100E-005 ), #117, 'distance_accuracy_value', 'NONE');
#30 = APPROVAL_DATE_TIME ( #151, #16 ) ;
#31 = EDGE_CURVE ( 'NONE', #13, #47, #83, .T. ) ;
#32 = DIRECTION ( 'NONE',  ( 0.0000000000000000000, 0.0000000000000000000, 1.000000000000000000 ) ) ;
#33 = CARTESIAN_POINT ( 'NONE',  ( 0.0000000000000000000, 0.0000000000000000000, 0.0000000000000000000 ) ) ;
#34 =( NAMED_UNIT ( * ) PLANE_ANGLE_UNIT ( ) SI_UNIT ( $, .RADIAN. ) );
#35 = VECTOR ( 'NONE', #140, 1000.000000000000000 ) ;
#36 = PERSON_AND_ORGANIZATION_ROLE ( 'creator' ) ;
#37 = LOCAL_TIME ( 9, 13, 27.00000000000000000, #52 ) ;
#38 = ORIENTED_EDGE ( 'NONE', *, *, #31, .T. ) ;
#39 = CARTESIAN_POINT ( 'NONE',  ( -25.00000000000000000, 0.0000000000000000000, 3.000000000000000000 ) ) ;
#40 = AXIS2_PLACEMENT_3D ( 'NONE', #129, #169, #168 ) ;
#41 = APPROVAL_ROLE ( '' ) ;
#42 = DIRECTION ( 'NONE',  ( -0.0000000000000000000, -0.0000000000000000000, -1.000000000000000000 ) ) ;
#43 = APPROVAL_DATE_TIME ( #18, #88 ) ;
#44 = PERSON_AND_ORGANIZATION ( #161, #15 ) ;
#45 = FACE_OUTER_BOUND ( 'NONE', #11, .T. ) ;
#46 = ORIENTED_EDGE ( 'NONE', *, *, #170, .T. ) ;
#47 = VERTEX_POINT ( 'NONE', #39 ) ;
#48 = DATE_AND_TIME ( #124, #27 ) ;
#49 = DIRECTION ( 'NONE',  ( 0.0000000000000000000, 0.0000000000000000000, 1.000000000000000000 ) ) ;
#50 =( NAMED_UNIT ( * ) SI_UNIT ( $, .STERADIAN. ) SOLID_ANGLE_UNIT ( ) );
#51 = PERSON_AND_ORGANIZATION_ROLE ( 'design_owner' ) ;
#52 = COORDINATED_UNIVERSAL_TIME_OFFSET ( 5, 0, .BEHIND. ) ;
#53 = DIRECTION ( 'NONE',  ( 0.0000000000000000000, 0.0000000000000000000, 1.000000000000000000 ) ) ;
#54 = PERSON_AND_ORGANIZATION_ROLE ( 'design_supplier' ) ;
#55 = CARTESIAN_POINT ( 'NONE',  ( 25.00000000000000000, 3.061616997868383000E-015, 3.000000000000000000 ) ) ;
#56 = CARTESIAN_POINT ( 'NONE',  ( 0.0000000000000000000, 0.0000000000000000000, 3.000000000000000000 ) ) ;
#57 = EDGE_CURVE ( 'NONE', #4, #64, #71, .T. ) ;
#58 = CARTESIAN_POINT ( 'NONE',  ( 0.0000000000000000000, 0.0000000000000000000, 3.000000000000000000 ) ) ;
#59 = ADVANCED_FACE ( 'NONE', ( #108 ), #135, .T. ) ;
#60 = LINE ( 'NONE', #93, #79 ) ;
#61 = EDGE_CURVE ( 'NONE', #47, #13, #171, .T. ) ;
#62 = EDGE_LOOP ( 'NONE', ( #70, #38 ) ) ;
#63 = EDGE_LOOP ( 'NONE', ( #96, #85, #144, #6 ) ) ;
#64 = VERTEX_POINT ( 'NONE', #82 ) ;
#65 = LOCAL_TIME ( 9, 13, 27.00000000000000000, #148 ) ;
#66 = PRODUCT_RELATED_PRODUCT_CATEGORY ( 'detail', '', ( #101 ) ) ;
#67 = DIRECTION ( 'NONE',  ( 0.0000000000000000000, 0.0000000000000000000, 1.000000000000000000 ) ) ;
#68 = CIRCLE ( 'NONE', #131, 25.00000000000000000 ) ;
#69 = MECHANICAL_CONTEXT ( 'NONE', #3, 'mechanical' ) ;
#70 = ORIENTED_EDGE ( 'NONE', *, *, #61, .T. ) ;
#71 = CIRCLE ( 'NONE', #139, 25.00000000000000000 ) ;
#72 = EDGE_CURVE ( 'NONE', #64, #4, #68, .T. ) ;
#73 = APPROVAL_ROLE ( '' ) ;
#74 = COORDINATED_UNIVERSAL_TIME_OFFSET ( 5, 0, .BEHIND. ) ;
#75 = CC_DESIGN_PERSON_AND_ORGANIZATION_ASSIGNMENT ( #138, #51, ( #101 ) ) ;
#76 = PERSON_AND_ORGANIZATION ( #161, #15 ) ;
#77 = CARTESIAN_POINT ( 'NONE',  ( -25.00000000000000000, 0.0000000000000000000, 3.000000000000000000 ) ) ;
#78 = AXIS2_PLACEMENT_3D ( 'NONE', #84, #87, #25 ) ;
#79 = VECTOR ( 'NONE', #153, 1000.000000000000000 ) ;
#80 = PERSON_AND_ORGANIZATION ( #161, #15 ) ;
#81 = PERSON_AND_ORGANIZATION ( #161, #15 ) ;
#82 = CARTESIAN_POINT ( 'NONE',  ( 25.00000000000000000, 3.061616997868383000E-015, 0.0000000000000000000 ) ) ;
#83 = CIRCLE ( 'NONE', #7, 25.00000000000000000 ) ;
#84 = CARTESIAN_POINT ( 'NONE',  ( 0.0000000000000000000, 0.0000000000000000000, 3.000000000000000000 ) ) ;
#85 = ORIENTED_EDGE ( 'NONE', *, *, #61, .F. ) ;
#86 = PERSON_AND_ORGANIZATION_ROLE ( 'classification_officer' ) ;
#87 = DIRECTION ( 'NONE',  ( -0.0000000000000000000, -0.0000000000000000000, -1.000000000000000000 ) ) ;
#88 = APPROVAL ( #100, 'UNSPECIFIED' ) ;
#89 = AXIS2_PLACEMENT_3D ( 'NONE', #166, #114, #8 ) ;
#90 = COORDINATED_UNIVERSAL_TIME_OFFSET ( 5, 0, .BEHIND. ) ;
#91 = AXIS2_PLACEMENT_3D ( 'NONE', #159, #42, #99 ) ;
#92 = APPROVAL_PERSON_ORGANIZATION ( #44, #10, #41 ) ;
#93 = CARTESIAN_POINT ( 'NONE',  ( 25.00000000000000000, 3.061616997868383000E-015, 3.000000000000000000 ) ) ;
#94 = APPLICATION_PROTOCOL_DEFINITION ( 'international standard', 'config_control_design', 1994, #3 ) ;
#95 = CALENDAR_DATE ( 2017, 24, 8 ) ;
#96 = ORIENTED_EDGE ( 'NONE', *, *, #170, .F. ) ;
#97 = MANIFOLD_SOLID_BREP ( 'Boss-Extrude1', #160 ) ;
#98 = CC_DESIGN_PERSON_AND_ORGANIZATION_ASSIGNMENT ( #120, #36, ( #128 ) ) ;
#99 = DIRECTION ( 'NONE',  ( -1.000000000000000000, 0.0000000000000000000, 0.0000000000000000000 ) ) ;
#100 = APPROVAL_STATUS ( 'not_yet_approved' ) ;
#101 = PRODUCT ( '34601_34601', '34601_34601', '', ( #69 ) ) ;
#102 = ORIENTED_EDGE ( 'NONE', *, *, #72, .T. ) ;
#103 = FACE_OUTER_BOUND ( 'NONE', #63, .T. ) ;
#104 = EDGE_CURVE ( 'NONE', #47, #4, #127, .T. ) ;
#105 = LOCAL_TIME ( 9, 13, 27.00000000000000000, #74 ) ;
#106 = CC_DESIGN_DATE_AND_TIME_ASSIGNMENT ( #48, #121, ( #128 ) ) ;
#107 = DESIGN_CONTEXT ( 'detailed design', #17, 'design' ) ;
#108 = FACE_OUTER_BOUND ( 'NONE', #125, .T. ) ;
#109 = ORIENTED_EDGE ( 'NONE', *, *, #57, .F. ) ;
#110 = PERSON_AND_ORGANIZATION_ROLE ( 'creator' ) ;
#111 = SECURITY_CLASSIFICATION_LEVEL ( 'unclassified' ) ;
#112 = SECURITY_CLASSIFICATION ( '', '', #111 ) ;
#113 = APPLICATION_PROTOCOL_DEFINITION ( 'international standard', 'config_control_design', 1994, #17 ) ;
#114 = DIRECTION ( 'NONE',  ( 0.0000000000000000000, 0.0000000000000000000, 1.000000000000000000 ) ) ;
#115 = CARTESIAN_POINT ( 'NONE',  ( 0.0000000000000000000, 0.0000000000000000000, 0.0000000000000000000 ) ) ;
#116 = ORIENTED_EDGE ( 'NONE', *, *, #104, .F. ) ;
#117 =( LENGTH_UNIT ( ) NAMED_UNIT ( * ) SI_UNIT ( .MILLI., .METRE. ) );
#118 = APPROVAL_PERSON_ORGANIZATION ( #134, #88, #73 ) ;
#119 = CC_DESIGN_APPROVAL ( #88, ( #172 ) ) ;
#120 = PERSON_AND_ORGANIZATION ( #161, #15 ) ;
#121 = DATE_TIME_ROLE ( 'creation_date' ) ;
#122 = APPROVAL_STATUS ( 'not_yet_approved' ) ;
#123 = CALENDAR_DATE ( 2017, 24, 8 ) ;
#124 = CALENDAR_DATE ( 2017, 24, 8 ) ;
#125 = EDGE_LOOP ( 'NONE', ( #145, #46, #102, #116 ) ) ;
#126 = CC_DESIGN_SECURITY_CLASSIFICATION ( #112, ( #172 ) ) ;
#127 = LINE ( 'NONE', #77, #35 ) ;
#128 = PRODUCT_DEFINITION ( 'UNKNOWN', '', #172, #107 ) ;
#129 = CARTESIAN_POINT ( 'NONE',  ( 0.0000000000000000000, 0.0000000000000000000, 3.000000000000000000 ) ) ;
#130 = COORDINATED_UNIVERSAL_TIME_OFFSET ( 5, 0, .BEHIND. ) ;
#131 = AXIS2_PLACEMENT_3D ( 'NONE', #33, #67, #167 ) ;
#132 = CARTESIAN_POINT ( 'NONE',  ( -25.00000000000000000, 0.0000000000000000000, 0.0000000000000000000 ) ) ;
#133 = PLANE ( 'NONE',  #141 ) ;
#134 = PERSON_AND_ORGANIZATION ( #161, #15 ) ;
#135 = CYLINDRICAL_SURFACE ( 'NONE', #78, 25.00000000000000000 ) ;
#136 = PERSON_AND_ORGANIZATION ( #161, #15 ) ;
#137 = DATE_AND_TIME ( #154, #14 ) ;
#138 = PERSON_AND_ORGANIZATION ( #161, #15 ) ;
#139 = AXIS2_PLACEMENT_3D ( 'NONE', #12, #53, #158 ) ;
#140 = DIRECTION ( 'NONE',  ( -0.0000000000000000000, -0.0000000000000000000, -1.000000000000000000 ) ) ;
#141 = AXIS2_PLACEMENT_3D ( 'NONE', #115, #49, #152 ) ;
#142 = DIRECTION ( 'NONE',  ( 1.000000000000000000, 0.0000000000000000000, 0.0000000000000000000 ) ) ;
#143 = APPROVAL_PERSON_ORGANIZATION ( #136, #16, #21 ) ;
#144 = ORIENTED_EDGE ( 'NONE', *, *, #104, .T. ) ;
#145 = ORIENTED_EDGE ( 'NONE', *, *, #31, .F. ) ;
#146 = PRODUCT_DEFINITION_SHAPE ( 'NONE', 'NONE',  #128 ) ;
#147 = APPROVAL_DATE_TIME ( #173, #10 ) ;
#148 = COORDINATED_UNIVERSAL_TIME_OFFSET ( 5, 0, .BEHIND. ) ;
#149 = CC_DESIGN_APPROVAL ( #10, ( #112 ) ) ;
#150 = DIRECTION ( 'NONE',  ( 1.000000000000000000, 0.0000000000000000000, 0.0000000000000000000 ) ) ;
#151 = DATE_AND_TIME ( #155, #105 ) ;
#152 = DIRECTION ( 'NONE',  ( 1.000000000000000000, 0.0000000000000000000, -0.0000000000000000000 ) ) ;
#153 = DIRECTION ( 'NONE',  ( -0.0000000000000000000, -0.0000000000000000000, -1.000000000000000000 ) ) ;
#154 = CALENDAR_DATE ( 2017, 24, 8 ) ;
#155 = CALENDAR_DATE ( 2017, 24, 8 ) ;
#156 = CC_DESIGN_PERSON_AND_ORGANIZATION_ASSIGNMENT ( #80, #86, ( #112 ) ) ;
#157 = DIRECTION ( 'NONE',  ( 0.0000000000000000000, 0.0000000000000000000, 1.000000000000000000 ) ) ;
#158 = DIRECTION ( 'NONE',  ( 1.000000000000000000, 0.0000000000000000000, 0.0000000000000000000 ) ) ;
#159 = CARTESIAN_POINT ( 'NONE',  ( 0.0000000000000000000, 0.0000000000000000000, 3.000000000000000000 ) ) ;
#160 = CLOSED_SHELL ( 'NONE', ( #59, #22, #175, #164 ) ) ;
#161 = PERSON ( 'UNSPECIFIED', 'UNSPECIFIED', 'UNSPECIFIED', ('UNSPECIFIED'), ('UNSPECIFIED'), ('UNSPECIFIED') ) ;
#162 = CC_DESIGN_PERSON_AND_ORGANIZATION_ASSIGNMENT ( #81, #110, ( #172 ) ) ;
#163 = CYLINDRICAL_SURFACE ( 'NONE', #91, 25.00000000000000000 ) ;
#164 = ADVANCED_FACE ( 'NONE', ( #45 ), #133, .F. ) ;
#165 = ADVANCED_BREP_SHAPE_REPRESENTATION ( '34601_34601', ( #97, #89 ), #20 ) ;
#166 = CARTESIAN_POINT ( 'NONE',  ( 0.0000000000000000000, 0.0000000000000000000, 0.0000000000000000000 ) ) ;
#167 = DIRECTION ( 'NONE',  ( 1.000000000000000000, 0.0000000000000000000, 0.0000000000000000000 ) ) ;
#168 = DIRECTION ( 'NONE',  ( 1.000000000000000000, 0.0000000000000000000, -0.0000000000000000000 ) ) ;
#169 = DIRECTION ( 'NONE',  ( 0.0000000000000000000, 0.0000000000000000000, 1.000000000000000000 ) ) ;
#170 = EDGE_CURVE ( 'NONE', #13, #64, #60, .T. ) ;
#171 = CIRCLE ( 'NONE', #2, 25.00000000000000000 ) ;
#172 = PRODUCT_DEFINITION_FORMATION_WITH_SPECIFIED_SOURCE ( 'ANY', '', #101, .NOT_KNOWN. ) ;
#173 = DATE_AND_TIME ( #123, #37 ) ;
#174 = SHAPE_DEFINITION_REPRESENTATION ( #146, #165 ) ;
#175 = ADVANCED_FACE ( 'NONE', ( #24 ), #5, .T. ) ;
ENDSEC;
END-ISO-10303-21;
