ISO-10303-21;
HEADER;
FILE_DESCRIPTION (( 'STEP AP203' ),
    '1' );
FILE_NAME ('TTN162753-E0W.STEP',
    '2019-10-24T14:05:44',
    ( '' ),
    ( '' ),
    'SwSTEP 2.0',
    'SolidWorks 2018',
    '' );
FILE_SCHEMA (( 'CONFIG_CONTROL_DESIGN' ));
ENDSEC;

DATA;
#1 = ADVANCED_FACE ( 'NONE', ( #5 ), #164, .T. ) ;
#2 = FACE_OUTER_BOUND ( 'NONE', #246, .T. ) ;
#3 = ADVANCED_FACE ( 'NONE', ( #235 ), #237, .T. ) ;
#4 = EDGE_CURVE ( 'NONE', #13, #180, #259, .T. ) ;
#5 = FACE_OUTER_BOUND ( 'NONE', #242, .T. ) ;
#6 = DIRECTION ( 'NONE',  ( 0.0000000000000000000, 1.000000000000000000, 2.168404344971008868E-16 ) ) ;
#7 = LINE ( 'NONE', #38, #148 ) ;
#8 = EDGE_CURVE ( 'NONE', #280, #83, #110, .T. ) ;
#9 = EDGE_LOOP ( 'NONE', ( #197, #26, #199, #276 ) ) ;
#10 = APPROVAL_STATUS ( 'not_yet_approved' ) ;
#11 = CIRCLE ( 'NONE', #211, 0.9499999999999998446 ) ;
#12 = LOCAL_TIME ( 10, 5, 44.00000000000000000, #77 ) ;
#13 = VERTEX_POINT ( 'NONE', #45 ) ;
#14 = DIRECTION ( 'NONE',  ( 0.0000000000000000000, 1.000000000000000000, 2.168404344971008868E-16 ) ) ;
#15 = CIRCLE ( 'NONE', #260, 1.000000000000000000 ) ;
#16 = CC_DESIGN_PERSON_AND_ORGANIZATION_ASSIGNMENT ( #104, #264, ( #256 ) ) ;
#17 = ORIENTED_EDGE ( 'NONE', *, *, #95, .T. ) ;
#18 = CARTESIAN_POINT ( 'NONE',  ( 0.8823754128651040141, 0.9949638294727957133, 1.849405290890506315 ) ) ;
#19 = AXIS2_PLACEMENT_3D ( 'NONE', #46, #298, #144 ) ;
#20 = PERSON_AND_ORGANIZATION ( #219, #108 ) ;
#21 = CIRCLE ( 'NONE', #19, 0.9500000000000000666 ) ;
#22 = ORIENTED_EDGE ( 'NONE', *, *, #175, .F. ) ;
#23 = APPROVAL ( #198, 'UNSPECIFIED' ) ;
#24 = PLANE ( 'NONE',  #288 ) ;
#25 = CARTESIAN_POINT ( 'NONE',  ( 0.8823754128651041251, 0.04496382947279597281, 1.849405290890506093 ) ) ;
#26 = ORIENTED_EDGE ( 'NONE', *, *, #166, .F. ) ;
#27 = EDGE_CURVE ( 'NONE', #47, #13, #297, .T. ) ;
#28 = ADVANCED_FACE ( 'NONE', ( #56 ), #231, .T. ) ;
#29 = CALENDAR_DATE ( 2019, 24, 10 ) ;
#30 = EDGE_LOOP ( 'NONE', ( #286, #191, #138 ) ) ;
#31 = CALENDAR_DATE ( 2019, 24, 10 ) ;
#32 = AXIS2_PLACEMENT_3D ( 'NONE', #18, #176, #202 ) ;
#33 = DIRECTION ( 'NONE',  ( 8.659560562354932858E-17, 0.7071067811865473507, 0.7071067811865477948 ) ) ;
#34 = APPROVAL_ROLE ( '' ) ;
#35 = ORIENTED_EDGE ( 'NONE', *, *, #88, .T. ) ;
#36 = APPLICATION_CONTEXT ( 'configuration controlled 3d designs of mechanical parts and assemblies' ) ;
#37 = CC_DESIGN_APPROVAL ( #23, ( #254 ) ) ;
#38 = CARTESIAN_POINT ( 'NONE',  ( 0.8823754128651040141, 1.994963829472795824, 1.799405290890506048 ) ) ;
#39 = DATE_AND_TIME ( #31, #12 ) ;
#40 = APPLICATION_CONTEXT ( 'configuration controlled 3d designs of mechanical parts and assemblies' ) ;
#41 = ORIENTED_EDGE ( 'NONE', *, *, #27, .T. ) ;
#42 = DIRECTION ( 'NONE',  ( 0.0000000000000000000, 1.000000000000000000, 2.168404344971008868E-16 ) ) ;
#43 = CARTESIAN_POINT ( 'NONE',  ( 0.8823754128651040141, 0.9949638294727957133, 1.799405290890505826 ) ) ;
#44 = EDGE_CURVE ( 'NONE', #180, #83, #174, .T. ) ;
#45 = CARTESIAN_POINT ( 'NONE',  ( 0.8823754128651041251, -0.005036170527204265890, 1.799405290890505604 ) ) ;
#46 = CARTESIAN_POINT ( 'NONE',  ( 0.8823754128651040141, 0.9949638294727957133, 0.9966130186897772525 ) ) ;
#47 = VERTEX_POINT ( 'NONE', #25 ) ;
#48 = CC_DESIGN_PERSON_AND_ORGANIZATION_ASSIGNMENT ( #169, #293, ( #226 ) ) ;
#49 = DIRECTION ( 'NONE',  ( 8.659560562354914369E-17, -0.7071067811865459074, -0.7071067811865491270 ) ) ;
#50 = ADVANCED_FACE ( 'NONE', ( #124 ), #24, .T. ) ;
#51 = LOCAL_TIME ( 10, 5, 44.00000000000000000, #114 ) ;
#52 = AXIS2_PLACEMENT_3D ( 'NONE', #43, #294, #42 ) ;
#53 = CARTESIAN_POINT ( 'NONE',  ( 0.8823754128651040141, 0.9949638294727957133, 0.9966130186897772525 ) ) ;
#54 = ORIENTED_EDGE ( 'NONE', *, *, #4, .F. ) ;
#55 = CARTESIAN_POINT ( 'NONE',  ( 0.0000000000000000000, 0.0000000000000000000, 0.0000000000000000000 ) ) ;
#56 = FACE_OUTER_BOUND ( 'NONE', #132, .T. ) ;
#57 = PERSON_AND_ORGANIZATION_ROLE ( 'design_supplier' ) ;
#58 = DIRECTION ( 'NONE',  ( 1.000000000000000000, 0.0000000000000000000, 0.0000000000000000000 ) ) ;
#59 = APPLICATION_PROTOCOL_DEFINITION ( 'international standard', 'config_control_design', 1994, #36 ) ;
#60 = ORIENTED_EDGE ( 'NONE', *, *, #166, .T. ) ;
#61 = AXIS2_PLACEMENT_3D ( 'NONE', #162, #227, #244 ) ;
#62 = ORIENTED_EDGE ( 'NONE', *, *, #44, .T. ) ;
#63 = CARTESIAN_POINT ( 'NONE',  ( 0.8823754128651040141, 1.994963829472795824, 1.799405290890506048 ) ) ;
#64 =( NAMED_UNIT ( * ) PLANE_ANGLE_UNIT ( ) SI_UNIT ( $, .RADIAN. ) );
#65 = AXIS2_PLACEMENT_3D ( 'NONE', #220, #221, #86 ) ;
#66 = APPROVAL_DATE_TIME ( #185, #106 ) ;
#67 = CARTESIAN_POINT ( 'NONE',  ( 0.8823754128651040141, 0.04496382947279564668, 0.9966130186897770304 ) ) ;
#68 = DIRECTION ( 'NONE',  ( 0.0000000000000000000, 1.000000000000000000, 2.282530889443167515E-16 ) ) ;
#69 = ORIENTED_EDGE ( 'NONE', *, *, #44, .F. ) ;
#70 = VECTOR ( 'NONE', #271, 1000.000000000000000 ) ;
#71 = CARTESIAN_POINT ( 'NONE',  ( 0.8823754128651040141, 0.9949638294727957133, 1.799405290890505826 ) ) ;
#72 = VECTOR ( 'NONE', #225, 1000.000000000000000 ) ;
#73 = ORIENTED_EDGE ( 'NONE', *, *, #140, .T. ) ;
#74 = CC_DESIGN_SECURITY_CLASSIFICATION ( #256, ( #207 ) ) ;
#75 = FACE_OUTER_BOUND ( 'NONE', #146, .T. ) ;
#76 =( NAMED_UNIT ( * ) SI_UNIT ( $, .STERADIAN. ) SOLID_ANGLE_UNIT ( ) );
#77 = COORDINATED_UNIVERSAL_TIME_OFFSET ( 5, 0, .BEHIND. ) ;
#78 = FACE_OUTER_BOUND ( 'NONE', #30, .T. ) ;
#79 = ORIENTED_EDGE ( 'NONE', *, *, #230, .T. ) ;
#80 = CIRCLE ( 'NONE', #247, 3.139000000000000234 ) ;
#81 = AXIS2_PLACEMENT_3D ( 'NONE', #156, #290, #171 ) ;
#82 = ORIENTED_EDGE ( 'NONE', *, *, #186, .F. ) ;
#83 = VERTEX_POINT ( 'NONE', #96 ) ;
#84 = SECURITY_CLASSIFICATION_LEVEL ( 'unclassified' ) ;
#85 = APPROVAL_STATUS ( 'not_yet_approved' ) ;
#86 = DIRECTION ( 'NONE',  ( 0.0000000000000000000, 0.0000000000000000000, 1.000000000000000000 ) ) ;
#87 = VERTEX_POINT ( 'NONE', #67 ) ;
#88 = EDGE_CURVE ( 'NONE', #280, #87, #21, .T. ) ;
#89 = CYLINDRICAL_SURFACE ( 'NONE', #61, 1.000000000000000000 ) ;
#90 = CIRCLE ( 'NONE', #81, 0.9500000000000000666 ) ;
#91 = DIRECTION ( 'NONE',  ( 0.0000000000000000000, 1.000000000000000000, 2.168404344971008868E-16 ) ) ;
#92 = ORIENTED_EDGE ( 'NONE', *, *, #117, .F. ) ;
#93 = DIRECTION ( 'NONE',  ( -0.0000000000000000000, 1.224646799147353454E-16, -1.000000000000000000 ) ) ;
#94 = CARTESIAN_POINT ( 'NONE',  ( 0.8823754128651040141, 0.9949638294727952692, 1.996613018689777475 ) ) ;
#95 = EDGE_CURVE ( 'NONE', #83, #180, #291, .T. ) ;
#96 = CARTESIAN_POINT ( 'NONE',  ( 0.8823754128651040141, 1.994963829472795824, 1.046613018689777519 ) ) ;
#97 = ORIENTED_EDGE ( 'NONE', *, *, #245, .T. ) ;
#98 = DESIGN_CONTEXT ( 'detailed design', #36, 'design' ) ;
#99 = ADVANCED_FACE ( 'NONE', ( #2 ), #172, .T. ) ;
#100 = LINE ( 'NONE', #115, #70 ) ;
#101 = DIRECTION ( 'NONE',  ( 0.0000000000000000000, -1.000000000000000000, -2.282530889443167022E-16 ) ) ;
#102 = ORIENTED_EDGE ( 'NONE', *, *, #183, .F. ) ;
#103 = EDGE_CURVE ( 'NONE', #210, #47, #11, .T. ) ;
#104 = PERSON_AND_ORGANIZATION ( #219, #108 ) ;
#105 = APPLICATION_PROTOCOL_DEFINITION ( 'international standard', 'config_control_design', 1994, #40 ) ;
#106 = APPROVAL ( #85, 'UNSPECIFIED' ) ;
#107 = APPROVAL_ROLE ( '' ) ;
#108 = ORGANIZATION ( 'UNSPECIFIED', 'UNSPECIFIED', '' ) ;
#109 = CARTESIAN_POINT ( 'NONE',  ( 0.8823754128651040141, 0.9949638294727957133, 0.9966130186897772525 ) ) ;
#110 = LINE ( 'NONE', #130, #218 ) ;
#111 = DIRECTION ( 'NONE',  ( 0.0000000000000000000, -1.224646799147353454E-16, 1.000000000000000000 ) ) ;
#112 = DIRECTION ( 'NONE',  ( 0.0000000000000000000, -1.000000000000000000, -2.282530889443167022E-16 ) ) ;
#113 = CARTESIAN_POINT ( 'NONE',  ( 0.8823754128651040141, 0.9949638294727957133, 1.799405290890505826 ) ) ;
#114 = COORDINATED_UNIVERSAL_TIME_OFFSET ( 5, 0, .BEHIND. ) ;
#115 = CARTESIAN_POINT ( 'NONE',  ( 0.8823754128651040141, 0.04496382947279564668, 0.9966130186897770304 ) ) ;
#116 = DIRECTION ( 'NONE',  ( 1.000000000000000000, 0.0000000000000000000, -0.0000000000000000000 ) ) ;
#117 = EDGE_CURVE ( 'NONE', #239, #83, #189, .T. ) ;
#118 = CARTESIAN_POINT ( 'NONE',  ( 0.8823754128651040141, 0.9949638294727954912, -1.142386981310222538 ) ) ;
#119 = DATE_AND_TIME ( #29, #261 ) ;
#120 = CARTESIAN_POINT ( 'NONE',  ( 0.8823754128651040141, 0.9949638294727957133, 0.9966130186897772525 ) ) ;
#121 = CC_DESIGN_DATE_AND_TIME_ASSIGNMENT ( #39, #168, ( #256 ) ) ;
#122 = DIRECTION ( 'NONE',  ( 0.0000000000000000000, 1.000000000000000000, 2.168404344971008868E-16 ) ) ;
#123 = ADVANCED_FACE ( 'NONE', ( #78 ), #192, .T. ) ;
#124 = FACE_OUTER_BOUND ( 'NONE', #208, .T. ) ;
#125 = AXIS2_PLACEMENT_3D ( 'NONE', #160, #248, #91 ) ;
#126 = ADVANCED_FACE ( 'NONE', ( #75 ), #89, .T. ) ;
#127 = VECTOR ( 'NONE', #49, 1000.000000000000000 ) ;
#128 = LOCAL_TIME ( 10, 5, 44.00000000000000000, #152 ) ;
#129 = ORIENTED_EDGE ( 'NONE', *, *, #186, .T. ) ;
#130 = CARTESIAN_POINT ( 'NONE',  ( 0.8823754128651041251, 1.944963829472795780, 0.9966130186897774745 ) ) ;
#131 = DIRECTION ( 'NONE',  ( 0.0000000000000000000, -1.224646799147353454E-16, 1.000000000000000000 ) ) ;
#132 = EDGE_LOOP ( 'NONE', ( #165, #79, #158 ) ) ;
#133 = SHAPE_DEFINITION_REPRESENTATION ( #258, #266 ) ;
#134 = ORIENTED_EDGE ( 'NONE', *, *, #4, .T. ) ;
#135 = CC_DESIGN_PERSON_AND_ORGANIZATION_ASSIGNMENT ( #20, #194, ( #254 ) ) ;
#136 = CIRCLE ( 'NONE', #65, 3.139000000000000234 ) ;
#137 = DIRECTION ( 'NONE',  ( -1.381589260892646422E-16, 1.000000000000000000, 0.0000000000000000000 ) ) ;
#138 = ORIENTED_EDGE ( 'NONE', *, *, #140, .F. ) ;
#139 = DIRECTION ( 'NONE',  ( 0.0000000000000000000, 0.7071067811865462405, -0.7071067811865489050 ) ) ;
#140 = EDGE_CURVE ( 'NONE', #47, #210, #167, .T. ) ;
#141 = CC_DESIGN_PERSON_AND_ORGANIZATION_ASSIGNMENT ( #143, #57, ( #207 ) ) ;
#142 = DIRECTION ( 'NONE',  ( -0.0000000000000000000, 1.224646799147353454E-16, -1.000000000000000000 ) ) ;
#143 = PERSON_AND_ORGANIZATION ( #219, #108 ) ;
#144 = DIRECTION ( 'NONE',  ( 0.0000000000000000000, 1.000000000000000000, 2.282530889443167022E-16 ) ) ;
#145 = DIRECTION ( 'NONE',  ( 1.000000000000000000, 0.0000000000000000000, -0.0000000000000000000 ) ) ;
#146 = EDGE_LOOP ( 'NONE', ( #54, #97, #149, #17 ) ) ;
#147 = DIRECTION ( 'NONE',  ( 0.0000000000000000000, 1.000000000000000000, 1.381589260892646422E-16 ) ) ;
#148 = VECTOR ( 'NONE', #139, 1000.000000000000000 ) ;
#149 = ORIENTED_EDGE ( 'NONE', *, *, #117, .T. ) ;
#150 = ADVANCED_FACE ( 'NONE', ( #188 ), #229, .T. ) ;
#151 = CC_DESIGN_PERSON_AND_ORGANIZATION_ASSIGNMENT ( #195, #217, ( #207 ) ) ;
#152 = COORDINATED_UNIVERSAL_TIME_OFFSET ( 5, 0, .BEHIND. ) ;
#153 = DIRECTION ( 'NONE',  ( -0.0000000000000000000, 1.224646799147353454E-16, -1.000000000000000000 ) ) ;
#154 = ORIENTED_EDGE ( 'NONE', *, *, #8, .T. ) ;
#155 = ORIENTED_EDGE ( 'NONE', *, *, #27, .F. ) ;
#156 = CARTESIAN_POINT ( 'NONE',  ( 0.8823754128651040141, 0.9949638294727957133, 0.9966130186897772525 ) ) ;
#157 = COORDINATED_UNIVERSAL_TIME_OFFSET ( 5, 0, .BEHIND. ) ;
#158 = ORIENTED_EDGE ( 'NONE', *, *, #103, .F. ) ;
#159 = DIRECTION ( 'NONE',  ( 0.0000000000000000000, 1.000000000000000000, 1.224646799147353454E-16 ) ) ;
#160 = CARTESIAN_POINT ( 'NONE',  ( 0.8823754128651040141, 0.9949638294727957133, 1.046613018689777297 ) ) ;
#161 = APPROVAL_PERSON_ORGANIZATION ( #233, #106, #107 ) ;
#162 = CARTESIAN_POINT ( 'NONE',  ( 0.8823754128651040141, 0.9949638294727957133, 0.9966130186897772525 ) ) ;
#163 = CARTESIAN_POINT ( 'NONE',  ( 0.8823754128651040141, 0.9949638294727954912, -1.142386981310222538 ) ) ;
#164 = CONICAL_SURFACE ( 'NONE', #296, 0.9500000000000000666, 0.7853981633974482790 ) ;
#165 = ORIENTED_EDGE ( 'NONE', *, *, #223, .F. ) ;
#166 = EDGE_CURVE ( 'NONE', #87, #280, #90, .T. ) ;
#167 = CIRCLE ( 'NONE', #32, 0.9499999999999998446 ) ;
#168 = DATE_TIME_ROLE ( 'classification_date' ) ;
#169 = PERSON_AND_ORGANIZATION ( #219, #108 ) ;
#170 = CARTESIAN_POINT ( 'NONE',  ( 0.8823754128651041251, -0.005036170527204265890, 1.046613018689777075 ) ) ;
#171 = DIRECTION ( 'NONE',  ( 0.0000000000000000000, 1.000000000000000000, 2.282530889443167022E-16 ) ) ;
#172 = CONICAL_SURFACE ( 'NONE', #193, 1.000000000000000000, 0.7853981633974461696 ) ;
#173 = DIRECTION ( 'NONE',  ( 0.0000000000000000000, 0.0000000000000000000, 1.000000000000000000 ) ) ;
#174 = CIRCLE ( 'NONE', #125, 1.000000000000000000 ) ;
#175 = EDGE_CURVE ( 'NONE', #87, #180, #100, .T. ) ;
#176 = DIRECTION ( 'NONE',  ( -0.0000000000000000000, 1.224646799147353454E-16, -1.000000000000000000 ) ) ;
#177 = DIRECTION ( 'NONE',  ( 0.0000000000000000000, -1.224646799147353454E-16, 1.000000000000000000 ) ) ;
#178 = APPROVAL_PERSON_ORGANIZATION ( #299, #249, #214 ) ;
#179 = CARTESIAN_POINT ( 'NONE',  ( 0.8823754128651040141, 0.9949638294727957133, 1.046613018689777297 ) ) ;
#180 = VERTEX_POINT ( 'NONE', #170 ) ;
#181 = CARTESIAN_POINT ( 'NONE',  ( 0.8823754128651041251, -0.005036170527204265890, 1.799405290890505604 ) ) ;
#182 = DIRECTION ( 'NONE',  ( -0.0000000000000000000, 1.224646799147353454E-16, -1.000000000000000000 ) ) ;
#183 = EDGE_CURVE ( 'NONE', #210, #239, #7, .T. ) ;
#184 = ORIENTED_EDGE ( 'NONE', *, *, #88, .F. ) ;
#185 = DATE_AND_TIME ( #243, #128 ) ;
#186 = EDGE_CURVE ( 'NONE', #239, #13, #190, .T. ) ;
#187 = CLOSED_SHELL ( 'NONE', ( #1, #28, #99, #150, #50, #126, #3, #123, #234 ) ) ;
#188 = FACE_OUTER_BOUND ( 'NONE', #204, .T. ) ;
#189 = LINE ( 'NONE', #251, #72 ) ;
#190 = CIRCLE ( 'NONE', #52, 1.000000000000000000 ) ;
#191 = ORIENTED_EDGE ( 'NONE', *, *, #223, .T. ) ;
#192 = SPHERICAL_SURFACE ( 'NONE', #216, 3.139000000000000234 ) ;
#193 = AXIS2_PLACEMENT_3D ( 'NONE', #71, #206, #273 ) ;
#194 = PERSON_AND_ORGANIZATION_ROLE ( 'creator' ) ;
#195 = PERSON_AND_ORGANIZATION ( #219, #108 ) ;
#196 = MANIFOLD_SOLID_BREP ( 'TTN162715-1-solid1', #187 ) ;
#197 = ORIENTED_EDGE ( 'NONE', *, *, #8, .F. ) ;
#198 = APPROVAL_STATUS ( 'not_yet_approved' ) ;
#199 = ORIENTED_EDGE ( 'NONE', *, *, #175, .T. ) ;
#200 = CC_DESIGN_DATE_AND_TIME_ASSIGNMENT ( #283, #263, ( #254 ) ) ;
#201 = APPROVAL_DATE_TIME ( #119, #23 ) ;
#202 = DIRECTION ( 'NONE',  ( 0.0000000000000000000, 1.000000000000000000, 2.282530889443167515E-16 ) ) ;
#203 = DIRECTION ( 'NONE',  ( 0.0000000000000000000, 1.000000000000000000, 1.381589260892646422E-16 ) ) ;
#204 = EDGE_LOOP ( 'NONE', ( #129, #134, #62, #92 ) ) ;
#205 = UNCERTAINTY_MEASURE_WITH_UNIT (LENGTH_MEASURE( 1.000000000000000082E-05 ), #241, 'distance_accuracy_value', 'NONE');
#206 = DIRECTION ( 'NONE',  ( -0.0000000000000000000, 1.224646799147353454E-16, -1.000000000000000000 ) ) ;
#207 = PRODUCT_DEFINITION_FORMATION_WITH_SPECIFIED_SOURCE ( 'ANY', '', #226, .NOT_KNOWN. ) ;
#208 = EDGE_LOOP ( 'NONE', ( #60, #35 ) ) ;
#209 = ORIENTED_EDGE ( 'NONE', *, *, #183, .T. ) ;
#210 = VERTEX_POINT ( 'NONE', #215 ) ;
#211 = AXIS2_PLACEMENT_3D ( 'NONE', #224, #93, #68 ) ;
#212 = CC_DESIGN_APPROVAL ( #106, ( #256 ) ) ;
#213 = APPROVAL_DATE_TIME ( #265, #249 ) ;
#214 = APPROVAL_ROLE ( '' ) ;
#215 = CARTESIAN_POINT ( 'NONE',  ( 0.8823754128651040141, 1.944963829472795558, 1.849405290890506537 ) ) ;
#216 = AXIS2_PLACEMENT_3D ( 'NONE', #118, #116, #203 ) ;
#217 = PERSON_AND_ORGANIZATION_ROLE ( 'creator' ) ;
#218 = VECTOR ( 'NONE', #33, 999.9999999999998863 ) ;
#219 = PERSON ( 'UNSPECIFIED', 'UNSPECIFIED', 'UNSPECIFIED', ('UNSPECIFIED'), ('UNSPECIFIED'), ('UNSPECIFIED') ) ;
#220 = CARTESIAN_POINT ( 'NONE',  ( 0.8823754128651040141, 0.9949638294727954912, -1.142386981310222538 ) ) ;
#221 = DIRECTION ( 'NONE',  ( -1.000000000000000000, 0.0000000000000000000, 0.0000000000000000000 ) ) ;
#222 = CONICAL_SURFACE ( 'NONE', #267, 0.9500000000000000666, 0.7853981633974482790 ) ;
#223 = EDGE_CURVE ( 'NONE', #252, #210, #136, .T. ) ;
#224 = CARTESIAN_POINT ( 'NONE',  ( 0.8823754128651040141, 0.9949638294727957133, 1.849405290890506315 ) ) ;
#225 = DIRECTION ( 'NONE',  ( -0.0000000000000000000, 1.224646799147353454E-16, -1.000000000000000000 ) ) ;
#226 = PRODUCT ( 'TTN162753-E0W', 'TTN162753-E0W', '', ( #262 ) ) ;
#227 = DIRECTION ( 'NONE',  ( -0.0000000000000000000, 1.224646799147353454E-16, -1.000000000000000000 ) ) ;
#228 = VECTOR ( 'NONE', #301, 1000.000000000000000 ) ;
#229 = CYLINDRICAL_SURFACE ( 'NONE', #236, 1.000000000000000000 ) ;
#230 = EDGE_CURVE ( 'NONE', #252, #47, #80, .T. ) ;
#231 = SPHERICAL_SURFACE ( 'NONE', #274, 3.139000000000000234 ) ;
#232 = AXIS2_PLACEMENT_3D ( 'NONE', #179, #177, #277 ) ;
#233 = PERSON_AND_ORGANIZATION ( #219, #108 ) ;
#234 = ADVANCED_FACE ( 'NONE', ( #250 ), #222, .T. ) ;
#235 = FACE_OUTER_BOUND ( 'NONE', #268, .T. ) ;
#236 = AXIS2_PLACEMENT_3D ( 'NONE', #120, #142, #122 ) ;
#237 = CONICAL_SURFACE ( 'NONE', #238, 1.000000000000000000, 0.7853981633974461696 ) ;
#238 = AXIS2_PLACEMENT_3D ( 'NONE', #257, #153, #6 ) ;
#239 = VERTEX_POINT ( 'NONE', #63 ) ;
#240 = DIRECTION ( 'NONE',  ( 1.000000000000000000, 1.224646799147353207E-16, 1.499759782661857882E-32 ) ) ;
#241 =( LENGTH_UNIT ( ) NAMED_UNIT ( * ) SI_UNIT ( .MILLI., .METRE. ) );
#242 = EDGE_LOOP ( 'NONE', ( #184, #154, #69, #22 ) ) ;
#243 = CALENDAR_DATE ( 2019, 24, 10 ) ;
#244 = DIRECTION ( 'NONE',  ( 0.0000000000000000000, 1.000000000000000000, 2.168404344971008868E-16 ) ) ;
#245 = EDGE_CURVE ( 'NONE', #13, #239, #15, .T. ) ;
#246 = EDGE_LOOP ( 'NONE', ( #292, #41, #82, #102 ) ) ;
#247 = AXIS2_PLACEMENT_3D ( 'NONE', #270, #240, #137 ) ;
#248 = DIRECTION ( 'NONE',  ( 0.0000000000000000000, -1.224646799147353454E-16, 1.000000000000000000 ) ) ;
#249 = APPROVAL ( #10, 'UNSPECIFIED' ) ;
#250 = FACE_OUTER_BOUND ( 'NONE', #9, .T. ) ;
#251 = CARTESIAN_POINT ( 'NONE',  ( 0.8823754128651040141, 1.994963829472795824, 0.9966130186897774745 ) ) ;
#252 = VERTEX_POINT ( 'NONE', #94 ) ;
#253 = CALENDAR_DATE ( 2019, 24, 10 ) ;
#254 = PRODUCT_DEFINITION ( 'UNKNOWN', '', #207, #98 ) ;
#255 = ORIENTED_EDGE ( 'NONE', *, *, #245, .F. ) ;
#256 = SECURITY_CLASSIFICATION ( '', '', #84 ) ;
#257 = CARTESIAN_POINT ( 'NONE',  ( 0.8823754128651040141, 0.9949638294727957133, 1.799405290890505826 ) ) ;
#258 = PRODUCT_DEFINITION_SHAPE ( 'NONE', 'NONE',  #254 ) ;
#259 = LINE ( 'NONE', #300, #228 ) ;
#260 = AXIS2_PLACEMENT_3D ( 'NONE', #113, #269, #14 ) ;
#261 = LOCAL_TIME ( 10, 5, 44.00000000000000000, #157 ) ;
#262 = MECHANICAL_CONTEXT ( 'NONE', #40, 'mechanical' ) ;
#263 = DATE_TIME_ROLE ( 'creation_date' ) ;
#264 = PERSON_AND_ORGANIZATION_ROLE ( 'classification_officer' ) ;
#265 = DATE_AND_TIME ( #287, #51 ) ;
#266 = ADVANCED_BREP_SHAPE_REPRESENTATION ( 'TTN162753-E0W', ( #196, #281 ), #285 ) ;
#267 = AXIS2_PLACEMENT_3D ( 'NONE', #109, #111, #112 ) ;
#268 = EDGE_LOOP ( 'NONE', ( #155, #73, #209, #255 ) ) ;
#269 = DIRECTION ( 'NONE',  ( -0.0000000000000000000, 1.224646799147353454E-16, -1.000000000000000000 ) ) ;
#270 = CARTESIAN_POINT ( 'NONE',  ( 0.8823754128651040141, 0.9949638294727954912, -1.142386981310222538 ) ) ;
#271 = DIRECTION ( 'NONE',  ( 0.0000000000000000000, -0.7071067811865475727, 0.7071067811865474617 ) ) ;
#272 = APPROVAL_PERSON_ORGANIZATION ( #289, #23, #34 ) ;
#273 = DIRECTION ( 'NONE',  ( 0.0000000000000000000, 1.000000000000000000, 2.168404344971008868E-16 ) ) ;
#274 = AXIS2_PLACEMENT_3D ( 'NONE', #163, #145, #147 ) ;
#275 = CARTESIAN_POINT ( 'NONE',  ( 0.8823754128651040141, 0.9949638294727957133, 0.9966130186897772525 ) ) ;
#276 = ORIENTED_EDGE ( 'NONE', *, *, #95, .F. ) ;
#277 = DIRECTION ( 'NONE',  ( 0.0000000000000000000, 1.000000000000000000, 2.168404344971008868E-16 ) ) ;
#278 = PRODUCT_RELATED_PRODUCT_CATEGORY ( 'detail', '', ( #226 ) ) ;
#279 = COORDINATED_UNIVERSAL_TIME_OFFSET ( 5, 0, .BEHIND. ) ;
#280 = VERTEX_POINT ( 'NONE', #295 ) ;
#281 = AXIS2_PLACEMENT_3D ( 'NONE', #55, #173, #58 ) ;
#282 = CC_DESIGN_APPROVAL ( #249, ( #207 ) ) ;
#283 = DATE_AND_TIME ( #253, #284 ) ;
#284 = LOCAL_TIME ( 10, 5, 44.00000000000000000, #279 ) ;
#285 =( GEOMETRIC_REPRESENTATION_CONTEXT ( 3 ) GLOBAL_UNCERTAINTY_ASSIGNED_CONTEXT ( ( #205 ) ) GLOBAL_UNIT_ASSIGNED_CONTEXT ( ( #241, #64, #76 ) ) REPRESENTATION_CONTEXT ( 'NONE', 'WORKASPACE' ) );
#286 = ORIENTED_EDGE ( 'NONE', *, *, #230, .F. ) ;
#287 = CALENDAR_DATE ( 2019, 24, 10 ) ;
#288 = AXIS2_PLACEMENT_3D ( 'NONE', #275, #182, #159 ) ;
#289 = PERSON_AND_ORGANIZATION ( #219, #108 ) ;
#290 = DIRECTION ( 'NONE',  ( -0.0000000000000000000, 1.224646799147353454E-16, -1.000000000000000000 ) ) ;
#291 = CIRCLE ( 'NONE', #232, 1.000000000000000000 ) ;
#292 = ORIENTED_EDGE ( 'NONE', *, *, #103, .T. ) ;
#293 = PERSON_AND_ORGANIZATION_ROLE ( 'design_owner' ) ;
#294 = DIRECTION ( 'NONE',  ( -0.0000000000000000000, 1.224646799147353454E-16, -1.000000000000000000 ) ) ;
#295 = CARTESIAN_POINT ( 'NONE',  ( 0.8823754128651041251, 1.944963829472795780, 0.9966130186897774745 ) ) ;
#296 = AXIS2_PLACEMENT_3D ( 'NONE', #53, #131, #101 ) ;
#297 = LINE ( 'NONE', #181, #127 ) ;
#298 = DIRECTION ( 'NONE',  ( -0.0000000000000000000, 1.224646799147353454E-16, -1.000000000000000000 ) ) ;
#299 = PERSON_AND_ORGANIZATION ( #219, #108 ) ;
#300 = CARTESIAN_POINT ( 'NONE',  ( 0.8823754128651041251, -0.005036170527204265890, 0.9966130186897770304 ) ) ;
#301 = DIRECTION ( 'NONE',  ( -0.0000000000000000000, 1.224646799147353454E-16, -1.000000000000000000 ) ) ;
ENDSEC;
END-ISO-10303-21;
