ISO-10303-21;
HEADER;
FILE_DESCRIPTION (( 'STEP AP203' ),
    '1' );
FILE_NAME ('Web Model 68427.STEP',
    '2017-01-31T20:02:48',
    ( '' ),
    ( '' ),
    'SwSTEP 2.0',
    'SolidWorks 2016',
    '' );
FILE_SCHEMA (( 'CONFIG_CONTROL_DESIGN' ));
ENDSEC;

DATA;
#1 = SHAPE_DEFINITION_REPRESENTATION ( #57, #189 ) ;
#2 = LINE ( 'NONE', #22, #95 ) ;
#3 = EDGE_LOOP ( 'NONE', ( #73, #182, #88, #40 ) ) ;
#4 = ADVANCED_FACE ( 'NONE', ( #206 ), #208, .F. ) ;
#5 = PRODUCT_RELATED_PRODUCT_CATEGORY ( 'detail', '', ( #118 ) ) ;
#6 = LINE ( 'NONE', #52, #219 ) ;
#7 = CARTESIAN_POINT ( 'NONE',  ( -17.49999999999999600, -17.50000000000000700, 3.000000000000000000 ) ) ;
#8 = LOCAL_TIME ( 15, 2, 48.00000000000000000, #75 ) ;
#9 = VECTOR ( 'NONE', #27, 1000.000000000000000 ) ;
#10 = DIRECTION ( 'NONE',  ( 1.000000000000000000, 9.912705577010325500E-017, -0.0000000000000000000 ) ) ;
#11 = CARTESIAN_POINT ( 'NONE',  ( -17.50000000000000000, 17.49999999999999600, 3.000000000000000000 ) ) ;
#12 = DATE_AND_TIME ( #53, #42 ) ;
#13 = VECTOR ( 'NONE', #199, 1000.000000000000000 ) ;
#14 = CC_DESIGN_PERSON_AND_ORGANIZATION_ASSIGNMENT ( #63, #56, ( #203 ) ) ;
#15 = AXIS2_PLACEMENT_3D ( 'NONE', #171, #65, #128 ) ;
#16 = EDGE_CURVE ( 'NONE', #144, #126, #59, .T. ) ;
#17 = DATE_AND_TIME ( #181, #105 ) ;
#18 = ORIENTED_EDGE ( 'NONE', *, *, #187, .F. ) ;
#19 = EDGE_CURVE ( 'NONE', #78, #195, #2, .T. ) ;
#20 = PERSON_AND_ORGANIZATION ( #123, #175 ) ;
#21 = DATE_AND_TIME ( #147, #29 ) ;
#22 = CARTESIAN_POINT ( 'NONE',  ( 17.49999999999999600, 17.50000000000000000, 0.0000000000000000000 ) ) ;
#23 = PERSON_AND_ORGANIZATION ( #123, #175 ) ;
#24 = VERTEX_POINT ( 'NONE', #174 ) ;
#25 = DIRECTION ( 'NONE',  ( 1.982541115402065100E-016, -1.000000000000000000, 0.0000000000000000000 ) ) ;
#26 = CC_DESIGN_PERSON_AND_ORGANIZATION_ASSIGNMENT ( #186, #71, ( #118 ) ) ;
#27 = DIRECTION ( 'NONE',  ( 1.000000000000000000, 9.912705577010325500E-017, -0.0000000000000000000 ) ) ;
#28 = CARTESIAN_POINT ( 'NONE',  ( 17.50000000000000400, -17.50000000000000400, 0.0000000000000000000 ) ) ;
#29 = LOCAL_TIME ( 15, 2, 48.00000000000000000, #198 ) ;
#30 = ORIENTED_EDGE ( 'NONE', *, *, #227, .F. ) ;
#31 = PLANE ( 'NONE',  #51 ) ;
#32 =( GEOMETRIC_REPRESENTATION_CONTEXT ( 3 ) GLOBAL_UNCERTAINTY_ASSIGNED_CONTEXT ( ( #109 ) ) GLOBAL_UNIT_ASSIGNED_CONTEXT ( ( #211, #110, #231 ) ) REPRESENTATION_CONTEXT ( 'NONE', 'WORKASPACE' ) );
#33 = EDGE_LOOP ( 'NONE', ( #155, #237, #156, #178 ) ) ;
#34 = CARTESIAN_POINT ( 'NONE',  ( 17.50000000000000400, -17.50000000000000400, 3.000000000000000000 ) ) ;
#35 = LINE ( 'NONE', #190, #81 ) ;
#36 = ORIENTED_EDGE ( 'NONE', *, *, #133, .T. ) ;
#37 = APPROVAL_ROLE ( '' ) ;
#38 = APPROVAL_ROLE ( '' ) ;
#39 = APPROVAL_STATUS ( 'not_yet_approved' ) ;
#40 = ORIENTED_EDGE ( 'NONE', *, *, #187, .T. ) ;
#41 = SECURITY_CLASSIFICATION ( '', '', #96 ) ;
#42 = LOCAL_TIME ( 15, 2, 48.00000000000000000, #154 ) ;
#43 = LINE ( 'NONE', #159, #228 ) ;
#44 = CARTESIAN_POINT ( 'NONE',  ( 17.49999999999999600, 17.50000000000000000, 0.0000000000000000000 ) ) ;
#45 = CALENDAR_DATE ( 2017, 31, 1 ) ;
#46 = COORDINATED_UNIVERSAL_TIME_OFFSET ( 5, 0, .BEHIND. ) ;
#47 = EDGE_LOOP ( 'NONE', ( #36, #98, #223, #72 ) ) ;
#48 = CARTESIAN_POINT ( 'NONE',  ( -17.50000000000000000, 17.49999999999999600, 3.000000000000000000 ) ) ;
#49 = CALENDAR_DATE ( 2017, 31, 1 ) ;
#50 = VECTOR ( 'NONE', #93, 1000.000000000000000 ) ;
#51 = AXIS2_PLACEMENT_3D ( 'NONE', #34, #134, #213 ) ;
#52 = CARTESIAN_POINT ( 'NONE',  ( 17.49999999999999600, 17.50000000000000000, 3.000000000000000000 ) ) ;
#53 = CALENDAR_DATE ( 2017, 31, 1 ) ;
#54 = DESIGN_CONTEXT ( 'detailed design', #135, 'design' ) ;
#55 = EDGE_LOOP ( 'NONE', ( #218, #158, #185, #108 ) ) ;
#56 = PERSON_AND_ORGANIZATION_ROLE ( 'design_supplier' ) ;
#57 = PRODUCT_DEFINITION_SHAPE ( 'NONE', 'NONE',  #101 ) ;
#58 = COORDINATED_UNIVERSAL_TIME_OFFSET ( 5, 0, .BEHIND. ) ;
#59 = LINE ( 'NONE', #131, #9 ) ;
#60 = EDGE_CURVE ( 'NONE', #24, #78, #43, .T. ) ;
#61 = LINE ( 'NONE', #212, #13 ) ;
#62 = ADVANCED_FACE ( 'NONE', ( #119 ), #85, .F. ) ;
#63 = PERSON_AND_ORGANIZATION ( #123, #175 ) ;
#64 = CC_DESIGN_PERSON_AND_ORGANIZATION_ASSIGNMENT ( #204, #151, ( #41 ) ) ;
#65 = DIRECTION ( 'NONE',  ( 1.000000000000000000, 9.912705577010325500E-017, -0.0000000000000000000 ) ) ;
#66 = CARTESIAN_POINT ( 'NONE',  ( -17.49999999999999600, -17.50000000000000700, 3.000000000000000000 ) ) ;
#67 = LOCAL_TIME ( 15, 2, 48.00000000000000000, #46 ) ;
#68 = LINE ( 'NONE', #209, #87 ) ;
#69 = DIRECTION ( 'NONE',  ( -1.000000000000000000, -1.982541115402065100E-016, 0.0000000000000000000 ) ) ;
#70 = PLANE ( 'NONE',  #234 ) ;
#71 = PERSON_AND_ORGANIZATION_ROLE ( 'design_owner' ) ;
#72 = ORIENTED_EDGE ( 'NONE', *, *, #172, .T. ) ;
#73 = ORIENTED_EDGE ( 'NONE', *, *, #169, .T. ) ;
#74 = CARTESIAN_POINT ( 'NONE',  ( -17.50000000000000000, 17.49999999999999600, 0.0000000000000000000 ) ) ;
#75 = COORDINATED_UNIVERSAL_TIME_OFFSET ( 5, 0, .BEHIND. ) ;
#76 = DATE_TIME_ROLE ( 'classification_date' ) ;
#77 = VERTEX_POINT ( 'NONE', #7 ) ;
#78 = VERTEX_POINT ( 'NONE', #44 ) ;
#79 = EDGE_CURVE ( 'NONE', #122, #195, #111, .T. ) ;
#80 = APPROVAL_DATE_TIME ( #86, #214 ) ;
#81 = VECTOR ( 'NONE', #10, 1000.000000000000000 ) ;
#82 = ADVANCED_FACE ( 'NONE', ( #107 ), #170, .F. ) ;
#83 = VECTOR ( 'NONE', #91, 1000.000000000000000 ) ;
#84 = ORIENTED_EDGE ( 'NONE', *, *, #19, .F. ) ;
#85 = PLANE ( 'NONE',  #217 ) ;
#86 = DATE_AND_TIME ( #45, #8 ) ;
#87 = VECTOR ( 'NONE', #229, 1000.000000000000000 ) ;
#88 = ORIENTED_EDGE ( 'NONE', *, *, #184, .T. ) ;
#89 = DIRECTION ( 'NONE',  ( -1.982541115402065100E-016, 1.000000000000000000, -0.0000000000000000000 ) ) ;
#90 = EDGE_CURVE ( 'NONE', #77, #125, #35, .T. ) ;
#91 = DIRECTION ( 'NONE',  ( -1.982541115402065100E-016, 1.000000000000000000, -0.0000000000000000000 ) ) ;
#92 = ORIENTED_EDGE ( 'NONE', *, *, #60, .T. ) ;
#93 = DIRECTION ( 'NONE',  ( 9.912705577010325500E-017, -1.000000000000000000, 0.0000000000000000000 ) ) ;
#94 = APPROVAL_STATUS ( 'not_yet_approved' ) ;
#95 = VECTOR ( 'NONE', #141, 1000.000000000000000 ) ;
#96 = SECURITY_CLASSIFICATION_LEVEL ( 'unclassified' ) ;
#97 = CC_DESIGN_SECURITY_CLASSIFICATION ( #41, ( #203 ) ) ;
#98 = ORIENTED_EDGE ( 'NONE', *, *, #60, .F. ) ;
#99 = APPROVAL_PERSON_ORGANIZATION ( #136, #214, #37 ) ;
#100 = ORIENTED_EDGE ( 'NONE', *, *, #133, .F. ) ;
#101 = PRODUCT_DEFINITION ( 'UNKNOWN', '', #203, #54 ) ;
#102 = APPROVAL_PERSON_ORGANIZATION ( #157, #149, #120 ) ;
#103 = FACE_OUTER_BOUND ( 'NONE', #139, .T. ) ;
#104 = CARTESIAN_POINT ( 'NONE',  ( 17.49999999999999600, 17.50000000000000000, 0.0000000000000000000 ) ) ;
#105 = LOCAL_TIME ( 15, 2, 48.00000000000000000, #58 ) ;
#106 = CC_DESIGN_APPROVAL ( #214, ( #203 ) ) ;
#107 = FACE_OUTER_BOUND ( 'NONE', #33, .T. ) ;
#108 = ORIENTED_EDGE ( 'NONE', *, *, #121, .T. ) ;
#109 = UNCERTAINTY_MEASURE_WITH_UNIT (LENGTH_MEASURE( 1.000000000000000100E-005 ), #211, 'distance_accuracy_value', 'NONE');
#110 =( NAMED_UNIT ( * ) PLANE_ANGLE_UNIT ( ) SI_UNIT ( $, .RADIAN. ) );
#111 = LINE ( 'NONE', #192, #165 ) ;
#112 = DIRECTION ( 'NONE',  ( 0.0000000000000000000, 0.0000000000000000000, -1.000000000000000000 ) ) ;
#113 = PLANE ( 'NONE',  #153 ) ;
#114 = DIRECTION ( 'NONE',  ( 0.0000000000000000000, 0.0000000000000000000, 1.000000000000000000 ) ) ;
#115 = ORIENTED_EDGE ( 'NONE', *, *, #16, .F. ) ;
#116 = CC_DESIGN_APPROVAL ( #149, ( #101 ) ) ;
#117 = FACE_OUTER_BOUND ( 'NONE', #55, .T. ) ;
#118 = PRODUCT ( 'Web Model 68427', 'Web Model 68427', '', ( #236 ) ) ;
#119 = FACE_OUTER_BOUND ( 'NONE', #47, .T. ) ;
#120 = APPROVAL_ROLE ( '' ) ;
#121 = EDGE_CURVE ( 'NONE', #77, #144, #68, .T. ) ;
#122 = VERTEX_POINT ( 'NONE', #11 ) ;
#123 = PERSON ( 'UNSPECIFIED', 'UNSPECIFIED', 'UNSPECIFIED', ('UNSPECIFIED'), ('UNSPECIFIED'), ('UNSPECIFIED') ) ;
#124 = APPROVAL_DATE_TIME ( #21, #149 ) ;
#125 = VERTEX_POINT ( 'NONE', #142 ) ;
#126 = VERTEX_POINT ( 'NONE', #28 ) ;
#127 = DIRECTION ( 'NONE',  ( -1.000000000000000000, -1.982541115402065100E-016, 0.0000000000000000000 ) ) ;
#128 = DIRECTION ( 'NONE',  ( -9.912705577010325500E-017, 1.000000000000000000, 0.0000000000000000000 ) ) ;
#129 = MANIFOLD_SOLID_BREP ( 'Extrude1', #215 ) ;
#130 = CC_DESIGN_PERSON_AND_ORGANIZATION_ASSIGNMENT ( #194, #180, ( #101 ) ) ;
#131 = CARTESIAN_POINT ( 'NONE',  ( 17.50000000000000400, -17.50000000000000400, 0.0000000000000000000 ) ) ;
#132 = DIRECTION ( 'NONE',  ( 9.912705577010325500E-017, -1.000000000000000000, 0.0000000000000000000 ) ) ;
#133 = EDGE_CURVE ( 'NONE', #126, #78, #177, .T. ) ;
#134 = DIRECTION ( 'NONE',  ( -9.912705577010325500E-017, 1.000000000000000000, 0.0000000000000000000 ) ) ;
#135 = APPLICATION_CONTEXT ( 'configuration controlled 3d designs of mechanical parts and assemblies' ) ;
#136 = PERSON_AND_ORGANIZATION ( #123, #175 ) ;
#137 = EDGE_LOOP ( 'NONE', ( #166, #167, #18, #92 ) ) ;
#138 = ADVANCED_FACE ( 'NONE', ( #188 ), #113, .F. ) ;
#139 = EDGE_LOOP ( 'NONE', ( #30, #84, #100, #115 ) ) ;
#140 = ADVANCED_FACE ( 'NONE', ( #117 ), #31, .F. ) ;
#141 = DIRECTION ( 'NONE',  ( -1.000000000000000000, -1.982541115402065100E-016, 0.0000000000000000000 ) ) ;
#142 = CARTESIAN_POINT ( 'NONE',  ( 17.50000000000000400, -17.50000000000000400, 3.000000000000000000 ) ) ;
#143 = APPROVAL ( #39, 'UNSPECIFIED' ) ;
#144 = VERTEX_POINT ( 'NONE', #196 ) ;
#145 = APPLICATION_PROTOCOL_DEFINITION ( 'international standard', 'config_control_design', 1994, #135 ) ;
#146 = CARTESIAN_POINT ( 'NONE',  ( 17.49999999999999600, 17.50000000000000000, 3.000000000000000000 ) ) ;
#147 = CALENDAR_DATE ( 2017, 31, 1 ) ;
#148 = APPLICATION_PROTOCOL_DEFINITION ( 'international standard', 'config_control_design', 1994, #163 ) ;
#149 = APPROVAL ( #202, 'UNSPECIFIED' ) ;
#150 = CARTESIAN_POINT ( 'NONE',  ( -17.49999999999999600, -17.50000000000000700, 0.0000000000000000000 ) ) ;
#151 = PERSON_AND_ORGANIZATION_ROLE ( 'classification_officer' ) ;
#152 = PERSON_AND_ORGANIZATION_ROLE ( 'creator' ) ;
#153 = AXIS2_PLACEMENT_3D ( 'NONE', #146, #161, #176 ) ;
#154 = COORDINATED_UNIVERSAL_TIME_OFFSET ( 5, 0, .BEHIND. ) ;
#155 = ORIENTED_EDGE ( 'NONE', *, *, #227, .T. ) ;
#156 = ORIENTED_EDGE ( 'NONE', *, *, #169, .F. ) ;
#157 = PERSON_AND_ORGANIZATION ( #123, #175 ) ;
#158 = ORIENTED_EDGE ( 'NONE', *, *, #172, .F. ) ;
#159 = CARTESIAN_POINT ( 'NONE',  ( 17.49999999999999600, 17.50000000000000000, 3.000000000000000000 ) ) ;
#160 = DATE_AND_TIME ( #49, #67 ) ;
#161 = DIRECTION ( 'NONE',  ( 1.982541115402065100E-016, -1.000000000000000000, 0.0000000000000000000 ) ) ;
#162 = VECTOR ( 'NONE', #89, 1000.000000000000000 ) ;
#163 = APPLICATION_CONTEXT ( 'configuration controlled 3d designs of mechanical parts and assemblies' ) ;
#164 = CARTESIAN_POINT ( 'NONE',  ( 17.49999999999999600, 17.50000000000000000, 3.000000000000000000 ) ) ;
#165 = VECTOR ( 'NONE', #207, 1000.000000000000000 ) ;
#166 = ORIENTED_EDGE ( 'NONE', *, *, #19, .T. ) ;
#167 = ORIENTED_EDGE ( 'NONE', *, *, #79, .F. ) ;
#168 = APPROVAL_PERSON_ORGANIZATION ( #20, #143, #38 ) ;
#169 = EDGE_CURVE ( 'NONE', #122, #77, #233, .T. ) ;
#170 = PLANE ( 'NONE',  #15 ) ;
#171 = CARTESIAN_POINT ( 'NONE',  ( -17.50000000000000000, 17.49999999999999600, 3.000000000000000000 ) ) ;
#172 = EDGE_CURVE ( 'NONE', #125, #126, #61, .T. ) ;
#173 = CC_DESIGN_DATE_AND_TIME_ASSIGNMENT ( #17, #76, ( #41 ) ) ;
#174 = CARTESIAN_POINT ( 'NONE',  ( 17.49999999999999600, 17.50000000000000000, 3.000000000000000000 ) ) ;
#175 = ORGANIZATION ( 'UNSPECIFIED', 'UNSPECIFIED', '' ) ;
#176 = DIRECTION ( 'NONE',  ( 1.000000000000000000, 1.982541115402065100E-016, 0.0000000000000000000 ) ) ;
#177 = LINE ( 'NONE', #104, #162 ) ;
#178 = ORIENTED_EDGE ( 'NONE', *, *, #79, .T. ) ;
#179 = AXIS2_PLACEMENT_3D ( 'NONE', #216, #114, #235 ) ;
#180 = PERSON_AND_ORGANIZATION_ROLE ( 'creator' ) ;
#181 = CALENDAR_DATE ( 2017, 31, 1 ) ;
#182 = ORIENTED_EDGE ( 'NONE', *, *, #90, .T. ) ;
#183 = CC_DESIGN_APPROVAL ( #143, ( #41 ) ) ;
#184 = EDGE_CURVE ( 'NONE', #125, #24, #222, .T. ) ;
#185 = ORIENTED_EDGE ( 'NONE', *, *, #90, .F. ) ;
#186 = PERSON_AND_ORGANIZATION ( #123, #175 ) ;
#187 = EDGE_CURVE ( 'NONE', #24, #122, #6, .T. ) ;
#188 = FACE_OUTER_BOUND ( 'NONE', #137, .T. ) ;
#189 = ADVANCED_BREP_SHAPE_REPRESENTATION ( 'Web Model 68427', ( #129, #179 ), #32 ) ;
#190 = CARTESIAN_POINT ( 'NONE',  ( 17.50000000000000400, -17.50000000000000400, 3.000000000000000000 ) ) ;
#191 = CC_DESIGN_DATE_AND_TIME_ASSIGNMENT ( #160, #200, ( #101 ) ) ;
#192 = CARTESIAN_POINT ( 'NONE',  ( -17.50000000000000000, 17.49999999999999600, 3.000000000000000000 ) ) ;
#193 = DIRECTION ( 'NONE',  ( -0.0000000000000000000, -0.0000000000000000000, -1.000000000000000000 ) ) ;
#194 = PERSON_AND_ORGANIZATION ( #123, #175 ) ;
#195 = VERTEX_POINT ( 'NONE', #74 ) ;
#196 = CARTESIAN_POINT ( 'NONE',  ( -17.49999999999999600, -17.50000000000000700, 0.0000000000000000000 ) ) ;
#197 = DIRECTION ( 'NONE',  ( -1.000000000000000000, 0.0000000000000000000, -0.0000000000000000000 ) ) ;
#198 = COORDINATED_UNIVERSAL_TIME_OFFSET ( 5, 0, .BEHIND. ) ;
#199 = DIRECTION ( 'NONE',  ( -0.0000000000000000000, -0.0000000000000000000, -1.000000000000000000 ) ) ;
#200 = DATE_TIME_ROLE ( 'creation_date' ) ;
#201 = APPROVAL_DATE_TIME ( #12, #143 ) ;
#202 = APPROVAL_STATUS ( 'not_yet_approved' ) ;
#203 = PRODUCT_DEFINITION_FORMATION_WITH_SPECIFIED_SOURCE ( 'ANY', '', #118, .NOT_KNOWN. ) ;
#204 = PERSON_AND_ORGANIZATION ( #123, #175 ) ;
#205 = AXIS2_PLACEMENT_3D ( 'NONE', #66, #226, #230 ) ;
#206 = FACE_OUTER_BOUND ( 'NONE', #3, .T. ) ;
#207 = DIRECTION ( 'NONE',  ( -0.0000000000000000000, -0.0000000000000000000, -1.000000000000000000 ) ) ;
#208 = PLANE ( 'NONE',  #205 ) ;
#209 = CARTESIAN_POINT ( 'NONE',  ( -17.49999999999999600, -17.50000000000000700, 3.000000000000000000 ) ) ;
#210 = VECTOR ( 'NONE', #132, 1000.000000000000000 ) ;
#211 =( LENGTH_UNIT ( ) NAMED_UNIT ( * ) SI_UNIT ( .MILLI., .METRE. ) );
#212 = CARTESIAN_POINT ( 'NONE',  ( 17.50000000000000400, -17.50000000000000400, 3.000000000000000000 ) ) ;
#213 = DIRECTION ( 'NONE',  ( -1.000000000000000000, -9.912705577010325500E-017, 0.0000000000000000000 ) ) ;
#214 = APPROVAL ( #94, 'UNSPECIFIED' ) ;
#215 = CLOSED_SHELL ( 'NONE', ( #82, #140, #62, #138, #4, #221 ) ) ;
#216 = CARTESIAN_POINT ( 'NONE',  ( 0.0000000000000000000, 0.0000000000000000000, 0.0000000000000000000 ) ) ;
#217 = AXIS2_PLACEMENT_3D ( 'NONE', #224, #127, #25 ) ;
#218 = ORIENTED_EDGE ( 'NONE', *, *, #16, .T. ) ;
#219 = VECTOR ( 'NONE', #69, 1000.000000000000000 ) ;
#220 = LINE ( 'NONE', #232, #50 ) ;
#221 = ADVANCED_FACE ( 'NONE', ( #103 ), #70, .T. ) ;
#222 = LINE ( 'NONE', #164, #83 ) ;
#223 = ORIENTED_EDGE ( 'NONE', *, *, #184, .F. ) ;
#224 = CARTESIAN_POINT ( 'NONE',  ( 17.49999999999999600, 17.50000000000000000, 3.000000000000000000 ) ) ;
#225 = CC_DESIGN_PERSON_AND_ORGANIZATION_ASSIGNMENT ( #23, #152, ( #203 ) ) ;
#226 = DIRECTION ( 'NONE',  ( 0.0000000000000000000, 0.0000000000000000000, -1.000000000000000000 ) ) ;
#227 = EDGE_CURVE ( 'NONE', #195, #144, #220, .T. ) ;
#228 = VECTOR ( 'NONE', #193, 1000.000000000000000 ) ;
#229 = DIRECTION ( 'NONE',  ( -0.0000000000000000000, -0.0000000000000000000, -1.000000000000000000 ) ) ;
#230 = DIRECTION ( 'NONE',  ( -1.000000000000000000, 0.0000000000000000000, -0.0000000000000000000 ) ) ;
#231 =( NAMED_UNIT ( * ) SI_UNIT ( $, .STERADIAN. ) SOLID_ANGLE_UNIT ( ) );
#232 = CARTESIAN_POINT ( 'NONE',  ( -17.50000000000000000, 17.49999999999999600, 0.0000000000000000000 ) ) ;
#233 = LINE ( 'NONE', #48, #210 ) ;
#234 = AXIS2_PLACEMENT_3D ( 'NONE', #150, #112, #197 ) ;
#235 = DIRECTION ( 'NONE',  ( 1.000000000000000000, 0.0000000000000000000, 0.0000000000000000000 ) ) ;
#236 = MECHANICAL_CONTEXT ( 'NONE', #163, 'mechanical' ) ;
#237 = ORIENTED_EDGE ( 'NONE', *, *, #121, .F. ) ;
ENDSEC;
END-ISO-10303-21;
