ISO-10303-21;
HEADER;
FILE_DESCRIPTION (( 'STEP AP203' ),
    '1' );
FILE_NAME ('Web Model 45584.STEP',
    '2017-01-31T15:18:12',
    ( '' ),
    ( '' ),
    'SwSTEP 2.0',
    'SolidWorks 2016',
    '' );
FILE_SCHEMA (( 'CONFIG_CONTROL_DESIGN' ));
ENDSEC;

DATA;
#1 = CALENDAR_DATE ( 2017, 31, 1 ) ;
#2 = DATE_AND_TIME ( #32, #130 ) ;
#3 = CIRCLE ( 'NONE', #109, 25.00000000000000000 ) ;
#4 = ORIENTED_EDGE ( 'NONE', *, *, #150, .F. ) ;
#5 = AXIS2_PLACEMENT_3D ( 'NONE', #20, #18, #21 ) ;
#6 = CIRCLE ( 'NONE', #25, 25.00000000000000000 ) ;
#7 = CC_DESIGN_APPROVAL ( #171, ( #119 ) ) ;
#8 = DATE_TIME_ROLE ( 'classification_date' ) ;
#9 = DIRECTION ( 'NONE',  ( 1.000000000000000000, 0.0000000000000000000, 0.0000000000000000000 ) ) ;
#10 = AXIS2_PLACEMENT_3D ( 'NONE', #62, #153, #125 ) ;
#11 = DATE_AND_TIME ( #1, #77 ) ;
#12 = APPROVAL_ROLE ( '' ) ;
#13 = PERSON_AND_ORGANIZATION ( #133, #30 ) ;
#14 = PRODUCT ( 'Web Model 45584', 'Web Model 45584', '', ( #74 ) ) ;
#15 = EDGE_CURVE ( 'NONE', #68, #16, #114, .T. ) ;
#16 = VERTEX_POINT ( 'NONE', #94 ) ;
#17 = AXIS2_PLACEMENT_3D ( 'NONE', #129, #159, #115 ) ;
#18 = DIRECTION ( 'NONE',  ( 0.0000000000000000000, 0.0000000000000000000, 1.000000000000000000 ) ) ;
#19 = ADVANCED_FACE ( 'NONE', ( #28 ), #70, .T. ) ;
#20 = CARTESIAN_POINT ( 'NONE',  ( 0.0000000000000000000, 0.0000000000000000000, -4.000000000000000000 ) ) ;
#21 = DIRECTION ( 'NONE',  ( 1.000000000000000000, 0.0000000000000000000, 0.0000000000000000000 ) ) ;
#22 = UNCERTAINTY_MEASURE_WITH_UNIT (LENGTH_MEASURE( 1.000000000000000100E-005 ), #52, 'distance_accuracy_value', 'NONE');
#23 = FACE_OUTER_BOUND ( 'NONE', #57, .T. ) ;
#24 = DIRECTION ( 'NONE',  ( 0.0000000000000000000, 0.0000000000000000000, 1.000000000000000000 ) ) ;
#25 = AXIS2_PLACEMENT_3D ( 'NONE', #75, #24, #38 ) ;
#26 = DATE_AND_TIME ( #56, #87 ) ;
#27 = CC_DESIGN_PERSON_AND_ORGANIZATION_ASSIGNMENT ( #134, #154, ( #119 ) ) ;
#28 = FACE_OUTER_BOUND ( 'NONE', #132, .T. ) ;
#29 =( NAMED_UNIT ( * ) PLANE_ANGLE_UNIT ( ) SI_UNIT ( $, .RADIAN. ) );
#30 = ORGANIZATION ( 'UNSPECIFIED', 'UNSPECIFIED', '' ) ;
#31 =( GEOMETRIC_REPRESENTATION_CONTEXT ( 3 ) GLOBAL_UNCERTAINTY_ASSIGNED_CONTEXT ( ( #22 ) ) GLOBAL_UNIT_ASSIGNED_CONTEXT ( ( #52, #29, #102 ) ) REPRESENTATION_CONTEXT ( 'NONE', 'WORKASPACE' ) );
#32 = CALENDAR_DATE ( 2017, 31, 1 ) ;
#33 = EDGE_CURVE ( 'NONE', #16, #68, #6, .T. ) ;
#34 = FACE_OUTER_BOUND ( 'NONE', #116, .T. ) ;
#35 = COORDINATED_UNIVERSAL_TIME_OFFSET ( 5, 0, .BEHIND. ) ;
#36 = VERTEX_POINT ( 'NONE', #60 ) ;
#37 = CC_DESIGN_DATE_AND_TIME_ASSIGNMENT ( #2, #8, ( #119 ) ) ;
#38 = DIRECTION ( 'NONE',  ( 1.000000000000000000, 0.0000000000000000000, 0.0000000000000000000 ) ) ;
#39 = APPROVAL ( #47, 'UNSPECIFIED' ) ;
#40 = CARTESIAN_POINT ( 'NONE',  ( 0.0000000000000000000, 0.0000000000000000000, -4.000000000000000000 ) ) ;
#41 = AXIS2_PLACEMENT_3D ( 'NONE', #141, #112, #9 ) ;
#42 = APPROVAL_DATE_TIME ( #166, #39 ) ;
#43 = CLOSED_SHELL ( 'NONE', ( #19, #149, #135, #95 ) ) ;
#44 = FACE_OUTER_BOUND ( 'NONE', #53, .T. ) ;
#45 = PRODUCT_RELATED_PRODUCT_CATEGORY ( 'detail', '', ( #14 ) ) ;
#46 = DIRECTION ( 'NONE',  ( 0.0000000000000000000, 0.0000000000000000000, 1.000000000000000000 ) ) ;
#47 = APPROVAL_STATUS ( 'not_yet_approved' ) ;
#48 = DIRECTION ( 'NONE',  ( 0.0000000000000000000, 0.0000000000000000000, 1.000000000000000000 ) ) ;
#49 = AXIS2_PLACEMENT_3D ( 'NONE', #110, #122, #165 ) ;
#50 = DIRECTION ( 'NONE',  ( 0.0000000000000000000, 0.0000000000000000000, 1.000000000000000000 ) ) ;
#51 = APPROVAL_STATUS ( 'not_yet_approved' ) ;
#52 =( LENGTH_UNIT ( ) NAMED_UNIT ( * ) SI_UNIT ( .MILLI., .METRE. ) );
#53 = EDGE_LOOP ( 'NONE', ( #163, #100 ) ) ;
#54 = PRODUCT_DEFINITION_SHAPE ( 'NONE', 'NONE',  #58 ) ;
#55 = PERSON_AND_ORGANIZATION ( #133, #30 ) ;
#56 = CALENDAR_DATE ( 2017, 31, 1 ) ;
#57 = EDGE_LOOP ( 'NONE', ( #162, #66, #88, #71 ) ) ;
#58 = PRODUCT_DEFINITION ( 'UNKNOWN', '', #103, #118 ) ;
#59 = SHAPE_DEFINITION_REPRESENTATION ( #54, #80 ) ;
#60 = CARTESIAN_POINT ( 'NONE',  ( -25.00000000000000000, 3.061616997868383000E-015, 0.0000000000000000000 ) ) ;
#61 = CYLINDRICAL_SURFACE ( 'NONE', #64, 25.00000000000000000 ) ;
#62 = CARTESIAN_POINT ( 'NONE',  ( 0.0000000000000000000, 0.0000000000000000000, -4.000000000000000000 ) ) ;
#63 = DIRECTION ( 'NONE',  ( 1.000000000000000000, 0.0000000000000000000, 0.0000000000000000000 ) ) ;
#64 = AXIS2_PLACEMENT_3D ( 'NONE', #40, #50, #63 ) ;
#65 = PERSON_AND_ORGANIZATION ( #133, #30 ) ;
#66 = ORIENTED_EDGE ( 'NONE', *, *, #15, .T. ) ;
#67 = APPROVAL ( #104, 'UNSPECIFIED' ) ;
#68 = VERTEX_POINT ( 'NONE', #139 ) ;
#69 = APPROVAL_PERSON_ORGANIZATION ( #107, #39, #82 ) ;
#70 = CYLINDRICAL_SURFACE ( 'NONE', #5, 25.00000000000000000 ) ;
#71 = ORIENTED_EDGE ( 'NONE', *, *, #97, .F. ) ;
#72 = DATE_TIME_ROLE ( 'creation_date' ) ;
#73 = CC_DESIGN_APPROVAL ( #67, ( #58 ) ) ;
#74 = MECHANICAL_CONTEXT ( 'NONE', #157, 'mechanical' ) ;
#75 = CARTESIAN_POINT ( 'NONE',  ( 0.0000000000000000000, 0.0000000000000000000, -4.000000000000000000 ) ) ;
#76 = APPLICATION_CONTEXT ( 'configuration controlled 3d designs of mechanical parts and assemblies' ) ;
#77 = LOCAL_TIME ( 10, 18, 12.00000000000000000, #128 ) ;
#78 = CC_DESIGN_DATE_AND_TIME_ASSIGNMENT ( #11, #72, ( #58 ) ) ;
#79 = VERTEX_POINT ( 'NONE', #127 ) ;
#80 = ADVANCED_BREP_SHAPE_REPRESENTATION ( 'Web Model 45584', ( #89, #41 ), #31 ) ;
#81 = CARTESIAN_POINT ( 'NONE',  ( -25.00000000000000000, 3.061616997868383000E-015, -4.000000000000000000 ) ) ;
#82 = APPROVAL_ROLE ( '' ) ;
#83 = DIRECTION ( 'NONE',  ( 0.0000000000000000000, 0.0000000000000000000, 1.000000000000000000 ) ) ;
#84 = PERSON_AND_ORGANIZATION_ROLE ( 'creator' ) ;
#85 = CALENDAR_DATE ( 2017, 31, 1 ) ;
#86 = EDGE_CURVE ( 'NONE', #16, #79, #175, .T. ) ;
#87 = LOCAL_TIME ( 10, 18, 12.00000000000000000, #35 ) ;
#88 = ORIENTED_EDGE ( 'NONE', *, *, #86, .T. ) ;
#89 = MANIFOLD_SOLID_BREP ( 'Extrude1', #43 ) ;
#90 = APPROVAL_DATE_TIME ( #164, #67 ) ;
#91 = CALENDAR_DATE ( 2017, 31, 1 ) ;
#92 = APPROVAL_PERSON_ORGANIZATION ( #137, #171, #12 ) ;
#93 = ORIENTED_EDGE ( 'NONE', *, *, #97, .T. ) ;
#94 = CARTESIAN_POINT ( 'NONE',  ( 25.00000000000000000, 0.0000000000000000000, -4.000000000000000000 ) ) ;
#95 = ADVANCED_FACE ( 'NONE', ( #34 ), #101, .T. ) ;
#96 = COORDINATED_UNIVERSAL_TIME_OFFSET ( 5, 0, .BEHIND. ) ;
#97 = EDGE_CURVE ( 'NONE', #36, #79, #3, .T. ) ;
#98 = DIRECTION ( 'NONE',  ( 1.000000000000000000, 0.0000000000000000000, -0.0000000000000000000 ) ) ;
#99 = PERSON_AND_ORGANIZATION_ROLE ( 'creator' ) ;
#100 = ORIENTED_EDGE ( 'NONE', *, *, #15, .F. ) ;
#101 = PLANE ( 'NONE',  #117 ) ;
#102 =( NAMED_UNIT ( * ) SI_UNIT ( $, .STERADIAN. ) SOLID_ANGLE_UNIT ( ) );
#103 = PRODUCT_DEFINITION_FORMATION_WITH_SPECIFIED_SOURCE ( 'ANY', '', #14, .NOT_KNOWN. ) ;
#104 = APPROVAL_STATUS ( 'not_yet_approved' ) ;
#105 = LOCAL_TIME ( 10, 18, 12.00000000000000000, #174 ) ;
#106 = LINE ( 'NONE', #81, #124 ) ;
#107 = PERSON_AND_ORGANIZATION ( #133, #30 ) ;
#108 = VECTOR ( 'NONE', #46, 1000.000000000000000 ) ;
#109 = AXIS2_PLACEMENT_3D ( 'NONE', #152, #83, #142 ) ;
#110 = CARTESIAN_POINT ( 'NONE',  ( 0.0000000000000000000, 0.0000000000000000000, -4.000000000000000000 ) ) ;
#111 = PERSON_AND_ORGANIZATION_ROLE ( 'design_supplier' ) ;
#112 = DIRECTION ( 'NONE',  ( 0.0000000000000000000, 0.0000000000000000000, 1.000000000000000000 ) ) ;
#113 = CARTESIAN_POINT ( 'NONE',  ( 0.0000000000000000000, 0.0000000000000000000, 0.0000000000000000000 ) ) ;
#114 = CIRCLE ( 'NONE', #49, 25.00000000000000000 ) ;
#115 = DIRECTION ( 'NONE',  ( 1.000000000000000000, 0.0000000000000000000, 0.0000000000000000000 ) ) ;
#116 = EDGE_LOOP ( 'NONE', ( #170, #93 ) ) ;
#117 = AXIS2_PLACEMENT_3D ( 'NONE', #113, #169, #98 ) ;
#118 = DESIGN_CONTEXT ( 'detailed design', #76, 'design' ) ;
#119 = SECURITY_CLASSIFICATION ( '', '', #140 ) ;
#120 = ORIENTED_EDGE ( 'NONE', *, *, #33, .T. ) ;
#121 = LOCAL_TIME ( 10, 18, 12.00000000000000000, #136 ) ;
#122 = DIRECTION ( 'NONE',  ( 0.0000000000000000000, 0.0000000000000000000, 1.000000000000000000 ) ) ;
#123 = CC_DESIGN_APPROVAL ( #39, ( #103 ) ) ;
#124 = VECTOR ( 'NONE', #48, 1000.000000000000000 ) ;
#125 = DIRECTION ( 'NONE',  ( 1.000000000000000000, 0.0000000000000000000, -0.0000000000000000000 ) ) ;
#126 = ORIENTED_EDGE ( 'NONE', *, *, #86, .F. ) ;
#127 = CARTESIAN_POINT ( 'NONE',  ( 25.00000000000000000, 0.0000000000000000000, 0.0000000000000000000 ) ) ;
#128 = COORDINATED_UNIVERSAL_TIME_OFFSET ( 5, 0, .BEHIND. ) ;
#129 = CARTESIAN_POINT ( 'NONE',  ( 0.0000000000000000000, 0.0000000000000000000, 0.0000000000000000000 ) ) ;
#130 = LOCAL_TIME ( 10, 18, 12.00000000000000000, #96 ) ;
#131 = CC_DESIGN_SECURITY_CLASSIFICATION ( #119, ( #103 ) ) ;
#132 = EDGE_LOOP ( 'NONE', ( #120, #138, #4, #126 ) ) ;
#133 = PERSON ( 'UNSPECIFIED', 'UNSPECIFIED', 'UNSPECIFIED', ('UNSPECIFIED'), ('UNSPECIFIED'), ('UNSPECIFIED') ) ;
#134 = PERSON_AND_ORGANIZATION ( #133, #30 ) ;
#135 = ADVANCED_FACE ( 'NONE', ( #44 ), #167, .F. ) ;
#136 = COORDINATED_UNIVERSAL_TIME_OFFSET ( 5, 0, .BEHIND. ) ;
#137 = PERSON_AND_ORGANIZATION ( #133, #30 ) ;
#138 = ORIENTED_EDGE ( 'NONE', *, *, #145, .T. ) ;
#139 = CARTESIAN_POINT ( 'NONE',  ( -25.00000000000000000, 3.061616997868383000E-015, -4.000000000000000000 ) ) ;
#140 = SECURITY_CLASSIFICATION_LEVEL ( 'unclassified' ) ;
#141 = CARTESIAN_POINT ( 'NONE',  ( 0.0000000000000000000, 0.0000000000000000000, 0.0000000000000000000 ) ) ;
#142 = DIRECTION ( 'NONE',  ( 1.000000000000000000, 0.0000000000000000000, 0.0000000000000000000 ) ) ;
#143 = PERSON_AND_ORGANIZATION ( #133, #30 ) ;
#144 = PERSON_AND_ORGANIZATION ( #133, #30 ) ;
#145 = EDGE_CURVE ( 'NONE', #68, #36, #106, .T. ) ;
#146 = CC_DESIGN_PERSON_AND_ORGANIZATION_ASSIGNMENT ( #143, #158, ( #14 ) ) ;
#147 = CC_DESIGN_PERSON_AND_ORGANIZATION_ASSIGNMENT ( #65, #99, ( #103 ) ) ;
#148 = APPROVAL_PERSON_ORGANIZATION ( #13, #67, #151 ) ;
#149 = ADVANCED_FACE ( 'NONE', ( #23 ), #61, .T. ) ;
#150 = EDGE_CURVE ( 'NONE', #79, #36, #168, .T. ) ;
#151 = APPROVAL_ROLE ( '' ) ;
#152 = CARTESIAN_POINT ( 'NONE',  ( 0.0000000000000000000, 0.0000000000000000000, 0.0000000000000000000 ) ) ;
#153 = DIRECTION ( 'NONE',  ( 0.0000000000000000000, 0.0000000000000000000, 1.000000000000000000 ) ) ;
#154 = PERSON_AND_ORGANIZATION_ROLE ( 'classification_officer' ) ;
#155 = APPLICATION_PROTOCOL_DEFINITION ( 'international standard', 'config_control_design', 1994, #157 ) ;
#156 = CC_DESIGN_PERSON_AND_ORGANIZATION_ASSIGNMENT ( #55, #84, ( #58 ) ) ;
#157 = APPLICATION_CONTEXT ( 'configuration controlled 3d designs of mechanical parts and assemblies' ) ;
#158 = PERSON_AND_ORGANIZATION_ROLE ( 'design_owner' ) ;
#159 = DIRECTION ( 'NONE',  ( 0.0000000000000000000, 0.0000000000000000000, 1.000000000000000000 ) ) ;
#160 = CC_DESIGN_PERSON_AND_ORGANIZATION_ASSIGNMENT ( #144, #111, ( #103 ) ) ;
#161 = APPROVAL_DATE_TIME ( #26, #171 ) ;
#162 = ORIENTED_EDGE ( 'NONE', *, *, #145, .F. ) ;
#163 = ORIENTED_EDGE ( 'NONE', *, *, #33, .F. ) ;
#164 = DATE_AND_TIME ( #85, #121 ) ;
#165 = DIRECTION ( 'NONE',  ( 1.000000000000000000, 0.0000000000000000000, 0.0000000000000000000 ) ) ;
#166 = DATE_AND_TIME ( #91, #105 ) ;
#167 = PLANE ( 'NONE',  #10 ) ;
#168 = CIRCLE ( 'NONE', #17, 25.00000000000000000 ) ;
#169 = DIRECTION ( 'NONE',  ( 0.0000000000000000000, 0.0000000000000000000, 1.000000000000000000 ) ) ;
#170 = ORIENTED_EDGE ( 'NONE', *, *, #150, .T. ) ;
#171 = APPROVAL ( #51, 'UNSPECIFIED' ) ;
#172 = CARTESIAN_POINT ( 'NONE',  ( 25.00000000000000000, 0.0000000000000000000, -4.000000000000000000 ) ) ;
#173 = APPLICATION_PROTOCOL_DEFINITION ( 'international standard', 'config_control_design', 1994, #76 ) ;
#174 = COORDINATED_UNIVERSAL_TIME_OFFSET ( 5, 0, .BEHIND. ) ;
#175 = LINE ( 'NONE', #172, #108 ) ;
ENDSEC;
END-ISO-10303-21;
