ISO-10303-21;
HEADER;
FILE_DESCRIPTION (( 'STEP AP203' ),
    '1' );
FILE_NAME ('Web Model 64402MX_64405.step',
    '2017-10-30T13:12:05',
    ( '' ),
    ( '' ),
    'SwSTEP 2.0',
    'SolidWorks 2016',
    '' );
FILE_SCHEMA (( 'CONFIG_CONTROL_DESIGN' ));
ENDSEC;

DATA;
#1 = AXIS2_PLACEMENT_3D ( 'NONE', #142, #143, #5 ) ;
#2 = COORDINATED_UNIVERSAL_TIME_OFFSET ( 5, 0, .BEHIND. ) ;
#3 = CARTESIAN_POINT ( 'NONE',  ( 12.49999999999999800, -12.49999999999999600, 4.750000000000000000 ) ) ;
#4 = CARTESIAN_POINT ( 'NONE',  ( 12.49999999999999800, 12.50000000000000400, 4.750000000000000000 ) ) ;
#5 = DIRECTION ( 'NONE',  ( 0.0000000000000000000, 0.0000000000000000000, 1.000000000000000000 ) ) ;
#6 = ORIENTED_EDGE ( 'NONE', *, *, #25, .F. ) ;
#7 = ORIENTED_EDGE ( 'NONE', *, *, #159, .F. ) ;
#8 = CC_DESIGN_SECURITY_CLASSIFICATION ( #83, ( #198 ) ) ;
#9 = APPROVAL_STATUS ( 'not_yet_approved' ) ;
#10 = DIRECTION ( 'NONE',  ( -1.000000000000000000, -1.387778780781445700E-016, 0.0000000000000000000 ) ) ;
#11 = VECTOR ( 'NONE', #232, 1000.000000000000000 ) ;
#12 = EDGE_LOOP ( 'NONE', ( #224, #18, #148, #175 ) ) ;
#13 = DIRECTION ( 'NONE',  ( 1.000000000000000000, 0.0000000000000000000, -0.0000000000000000000 ) ) ;
#14 = DIRECTION ( 'NONE',  ( -0.0000000000000000000, -0.0000000000000000000, -1.000000000000000000 ) ) ;
#15 = SHAPE_DEFINITION_REPRESENTATION ( #102, #23 ) ;
#16 = DIRECTION ( 'NONE',  ( 0.0000000000000000000, -0.0000000000000000000, 1.000000000000000000 ) ) ;
#17 = COORDINATED_UNIVERSAL_TIME_OFFSET ( 5, 0, .BEHIND. ) ;
#18 = ORIENTED_EDGE ( 'NONE', *, *, #137, .T. ) ;
#19 = LINE ( 'NONE', #42, #30 ) ;
#20 = CC_DESIGN_PERSON_AND_ORGANIZATION_ASSIGNMENT ( #24, #169, ( #145 ) ) ;
#21 = FACE_OUTER_BOUND ( 'NONE', #41, .T. ) ;
#22 = ORIENTED_EDGE ( 'NONE', *, *, #222, .F. ) ;
#23 = ADVANCED_BREP_SHAPE_REPRESENTATION ( 'Web Model 64402MX_64405', ( #116, #53 ), #230 ) ;
#24 = PERSON_AND_ORGANIZATION ( #164, #98 ) ;
#25 = EDGE_CURVE ( 'NONE', #36, #72, #55, .T. ) ;
#26 = APPLICATION_CONTEXT ( 'configuration controlled 3d designs of mechanical parts and assemblies' ) ;
#27 = FACE_OUTER_BOUND ( 'NONE', #153, .T. ) ;
#28 = ORIENTED_EDGE ( 'NONE', *, *, #96, .F. ) ;
#29 = CC_DESIGN_DATE_AND_TIME_ASSIGNMENT ( #103, #126, ( #73 ) ) ;
#30 = VECTOR ( 'NONE', #47, 1000.000000000000000 ) ;
#31 = DIRECTION ( 'NONE',  ( 0.0000000000000000000, 0.0000000000000000000, 1.000000000000000000 ) ) ;
#32 = DIRECTION ( 'NONE',  ( 1.000000000000000000, 0.0000000000000000000, -0.0000000000000000000 ) ) ;
#33 = ADVANCED_FACE ( 'NONE', ( #184 ), #106, .F. ) ;
#34 = CARTESIAN_POINT ( 'NONE',  ( 0.0000000000000000000, 0.0000000000000000000, 0.0000000000000000000 ) ) ;
#35 = ORIENTED_EDGE ( 'NONE', *, *, #56, .F. ) ;
#36 = VERTEX_POINT ( 'NONE', #132 ) ;
#37 = CC_DESIGN_APPROVAL ( #187, ( #73 ) ) ;
#38 = DATE_AND_TIME ( #152, #161 ) ;
#39 = LOCAL_TIME ( 9, 12, 5.000000000000000000, #17 ) ;
#40 = DIRECTION ( 'NONE',  ( -1.387778780781445700E-016, 1.000000000000000000, 0.0000000000000000000 ) ) ;
#41 = EDGE_LOOP ( 'NONE', ( #60, #130, #236, #108 ) ) ;
#42 = CARTESIAN_POINT ( 'NONE',  ( -12.50000000000000200, 12.50000000000000000, 4.750000000000000000 ) ) ;
#43 = APPLICATION_CONTEXT ( 'configuration controlled 3d designs of mechanical parts and assemblies' ) ;
#44 = APPROVAL_STATUS ( 'not_yet_approved' ) ;
#45 = LINE ( 'NONE', #91, #59 ) ;
#46 = AXIS2_PLACEMENT_3D ( 'NONE', #3, #40, #124 ) ;
#47 = DIRECTION ( 'NONE',  ( -0.0000000000000000000, -0.0000000000000000000, -1.000000000000000000 ) ) ;
#48 = CARTESIAN_POINT ( 'NONE',  ( 12.49999999999999800, -12.49999999999999600, 4.750000000000000000 ) ) ;
#49 = PERSON_AND_ORGANIZATION ( #164, #98 ) ;
#50 = PLANE ( 'NONE',  #107 ) ;
#51 = DIRECTION ( 'NONE',  ( -0.0000000000000000000, -0.0000000000000000000, -1.000000000000000000 ) ) ;
#52 = DIRECTION ( 'NONE',  ( 1.000000000000000000, 1.387778780781445700E-016, -0.0000000000000000000 ) ) ;
#53 = AXIS2_PLACEMENT_3D ( 'NONE', #34, #31, #86 ) ;
#54 =( NAMED_UNIT ( * ) PLANE_ANGLE_UNIT ( ) SI_UNIT ( $, .RADIAN. ) );
#55 = LINE ( 'NONE', #150, #64 ) ;
#56 = EDGE_CURVE ( 'NONE', #57, #72, #179, .T. ) ;
#57 = VERTEX_POINT ( 'NONE', #94 ) ;
#58 = PERSON_AND_ORGANIZATION ( #164, #98 ) ;
#59 = VECTOR ( 'NONE', #147, 1000.000000000000000 ) ;
#60 = ORIENTED_EDGE ( 'NONE', *, *, #222, .T. ) ;
#61 = CARTESIAN_POINT ( 'NONE',  ( -12.50000000000000200, -12.50000000000000000, 4.750000000000000000 ) ) ;
#62 = CARTESIAN_POINT ( 'NONE',  ( -12.50000000000000200, -12.50000000000000000, 4.750000000000000000 ) ) ;
#63 = CARTESIAN_POINT ( 'NONE',  ( -12.50000000000000200, -12.50000000000000000, 4.750000000000000000 ) ) ;
#64 = VECTOR ( 'NONE', #151, 1000.000000000000000 ) ;
#65 = ORIENTED_EDGE ( 'NONE', *, *, #162, .T. ) ;
#66 = PERSON_AND_ORGANIZATION ( #164, #98 ) ;
#67 = EDGE_CURVE ( 'NONE', #166, #36, #135, .T. ) ;
#68 = APPROVAL_DATE_TIME ( #117, #119 ) ;
#69 = APPROVAL_STATUS ( 'not_yet_approved' ) ;
#70 = DIRECTION ( 'NONE',  ( 1.387778780781445700E-016, -1.000000000000000000, 0.0000000000000000000 ) ) ;
#71 = LINE ( 'NONE', #189, #201 ) ;
#72 = VERTEX_POINT ( 'NONE', #217 ) ;
#73 = PRODUCT_DEFINITION ( 'UNKNOWN', '', #198, #177 ) ;
#74 = CALENDAR_DATE ( 2017, 30, 10 ) ;
#75 = DIRECTION ( 'NONE',  ( 0.0000000000000000000, 1.000000000000000000, 0.0000000000000000000 ) ) ;
#76 =( NAMED_UNIT ( * ) SI_UNIT ( $, .STERADIAN. ) SOLID_ANGLE_UNIT ( ) );
#77 = CC_DESIGN_APPROVAL ( #119, ( #198 ) ) ;
#78 = LOCAL_TIME ( 9, 12, 5.000000000000000000, #2 ) ;
#79 = ORIENTED_EDGE ( 'NONE', *, *, #25, .T. ) ;
#80 = CALENDAR_DATE ( 2017, 30, 10 ) ;
#81 = ADVANCED_FACE ( 'NONE', ( #89 ), #113, .T. ) ;
#82 = VECTOR ( 'NONE', #208, 1000.000000000000000 ) ;
#83 = SECURITY_CLASSIFICATION ( '', '', #127 ) ;
#84 = DIRECTION ( 'NONE',  ( 0.0000000000000000000, 0.0000000000000000000, -1.000000000000000000 ) ) ;
#85 = LINE ( 'NONE', #48, #111 ) ;
#86 = DIRECTION ( 'NONE',  ( 1.000000000000000000, 0.0000000000000000000, 0.0000000000000000000 ) ) ;
#87 = MECHANICAL_CONTEXT ( 'NONE', #26, 'mechanical' ) ;
#88 = LOCAL_TIME ( 9, 12, 5.000000000000000000, #156 ) ;
#89 = FACE_OUTER_BOUND ( 'NONE', #12, .T. ) ;
#90 = VERTEX_POINT ( 'NONE', #155 ) ;
#91 = CARTESIAN_POINT ( 'NONE',  ( 12.49999999999999800, 12.50000000000000400, -4.750000000000000000 ) ) ;
#92 = PERSON_AND_ORGANIZATION_ROLE ( 'creator' ) ;
#93 = ORIENTED_EDGE ( 'NONE', *, *, #96, .T. ) ;
#94 = CARTESIAN_POINT ( 'NONE',  ( 12.49999999999999800, 12.50000000000000400, 4.750000000000000000 ) ) ;
#95 =( LENGTH_UNIT ( ) NAMED_UNIT ( * ) SI_UNIT ( .MILLI., .METRE. ) );
#96 = EDGE_CURVE ( 'NONE', #90, #210, #186, .T. ) ;
#97 = COORDINATED_UNIVERSAL_TIME_OFFSET ( 5, 0, .BEHIND. ) ;
#98 = ORGANIZATION ( 'UNSPECIFIED', 'UNSPECIFIED', '' ) ;
#99 = VERTEX_POINT ( 'NONE', #63 ) ;
#100 = AXIS2_PLACEMENT_3D ( 'NONE', #185, #200, #13 ) ;
#101 = ORIENTED_EDGE ( 'NONE', *, *, #141, .F. ) ;
#102 = PRODUCT_DEFINITION_SHAPE ( 'NONE', 'NONE',  #73 ) ;
#103 = DATE_AND_TIME ( #74, #39 ) ;
#104 = ORIENTED_EDGE ( 'NONE', *, *, #56, .T. ) ;
#105 = APPROVAL ( #44, 'UNSPECIFIED' ) ;
#106 = PLANE ( 'NONE',  #100 ) ;
#107 = AXIS2_PLACEMENT_3D ( 'NONE', #109, #70, #172 ) ;
#108 = ORIENTED_EDGE ( 'NONE', *, *, #225, .T. ) ;
#109 = CARTESIAN_POINT ( 'NONE',  ( 12.49999999999999800, 12.50000000000000400, 4.750000000000000000 ) ) ;
#110 = EDGE_CURVE ( 'NONE', #171, #99, #139, .T. ) ;
#111 = VECTOR ( 'NONE', #75, 1000.000000000000000 ) ;
#112 = ADVANCED_FACE ( 'NONE', ( #21 ), #120, .F. ) ;
#113 = PLANE ( 'NONE',  #182 ) ;
#114 = LINE ( 'NONE', #144, #165 ) ;
#115 = ADVANCED_FACE ( 'NONE', ( #206 ), #178, .F. ) ;
#116 = MANIFOLD_SOLID_BREP ( 'Boss-Extrude1', #195 ) ;
#117 = DATE_AND_TIME ( #170, #209 ) ;
#118 = ADVANCED_FACE ( 'NONE', ( #27 ), #196, .F. ) ;
#119 = APPROVAL ( #69, 'UNSPECIFIED' ) ;
#120 = PLANE ( 'NONE',  #46 ) ;
#121 = LINE ( 'NONE', #158, #129 ) ;
#122 = ORIENTED_EDGE ( 'NONE', *, *, #110, .F. ) ;
#123 = PRODUCT_RELATED_PRODUCT_CATEGORY ( 'detail', '', ( #145 ) ) ;
#124 = DIRECTION ( 'NONE',  ( -1.000000000000000000, -1.387778780781445700E-016, 0.0000000000000000000 ) ) ;
#125 = APPROVAL_DATE_TIME ( #157, #187 ) ;
#126 = DATE_TIME_ROLE ( 'creation_date' ) ;
#127 = SECURITY_CLASSIFICATION_LEVEL ( 'unclassified' ) ;
#128 = CARTESIAN_POINT ( 'NONE',  ( -12.50000000000000200, 12.50000000000000000, 4.750000000000000000 ) ) ;
#129 = VECTOR ( 'NONE', #188, 1000.000000000000000 ) ;
#130 = ORIENTED_EDGE ( 'NONE', *, *, #67, .F. ) ;
#131 = PERSON_AND_ORGANIZATION_ROLE ( 'classification_officer' ) ;
#132 = CARTESIAN_POINT ( 'NONE',  ( 12.49999999999999800, -12.49999999999999600, -4.750000000000000000 ) ) ;
#133 = CARTESIAN_POINT ( 'NONE',  ( 12.49999999999999800, -12.49999999999999600, 4.750000000000000000 ) ) ;
#134 = CC_DESIGN_DATE_AND_TIME_ASSIGNMENT ( #38, #149, ( #83 ) ) ;
#135 = LINE ( 'NONE', #133, #138 ) ;
#136 = APPROVAL_DATE_TIME ( #228, #105 ) ;
#137 = EDGE_CURVE ( 'NONE', #99, #166, #114, .T. ) ;
#138 = VECTOR ( 'NONE', #14, 1000.000000000000000 ) ;
#139 = LINE ( 'NONE', #61, #82 ) ;
#140 = ORIENTED_EDGE ( 'NONE', *, *, #162, .F. ) ;
#141 = EDGE_CURVE ( 'NONE', #57, #171, #204, .T. ) ;
#142 = CARTESIAN_POINT ( 'NONE',  ( 12.49999999999999800, -12.49999999999999600, 4.750000000000000000 ) ) ;
#143 = DIRECTION ( 'NONE',  ( -1.000000000000000000, 0.0000000000000000000, 0.0000000000000000000 ) ) ;
#144 = CARTESIAN_POINT ( 'NONE',  ( 12.49999999999999800, -12.49999999999999600, 4.750000000000000000 ) ) ;
#145 = PRODUCT ( 'Web Model 64402MX_64405', 'Web Model 64402MX_64405', '', ( #87 ) ) ;
#146 = CC_DESIGN_APPROVAL ( #105, ( #83 ) ) ;
#147 = DIRECTION ( 'NONE',  ( -1.000000000000000000, -1.387778780781445700E-016, 0.0000000000000000000 ) ) ;
#148 = ORIENTED_EDGE ( 'NONE', *, *, #218, .T. ) ;
#149 = DATE_TIME_ROLE ( 'classification_date' ) ;
#150 = CARTESIAN_POINT ( 'NONE',  ( 12.49999999999999800, -12.49999999999999600, -4.750000000000000000 ) ) ;
#151 = DIRECTION ( 'NONE',  ( 0.0000000000000000000, 1.000000000000000000, 0.0000000000000000000 ) ) ;
#152 = CALENDAR_DATE ( 2017, 30, 10 ) ;
#153 = EDGE_LOOP ( 'NONE', ( #79, #35, #221, #192 ) ) ;
#154 = CARTESIAN_POINT ( 'NONE',  ( 12.49999999999999800, 12.50000000000000400, 4.750000000000000000 ) ) ;
#155 = CARTESIAN_POINT ( 'NONE',  ( -12.50000000000000200, 12.50000000000000000, -4.750000000000000000 ) ) ;
#156 = COORDINATED_UNIVERSAL_TIME_OFFSET ( 5, 0, .BEHIND. ) ;
#157 = DATE_AND_TIME ( #215, #78 ) ;
#158 = CARTESIAN_POINT ( 'NONE',  ( -12.50000000000000200, -12.50000000000000000, 4.750000000000000000 ) ) ;
#159 = EDGE_CURVE ( 'NONE', #171, #90, #19, .T. ) ;
#160 = ADVANCED_FACE ( 'NONE', ( #219 ), #50, .F. ) ;
#161 = LOCAL_TIME ( 9, 12, 5.000000000000000000, #97 ) ;
#162 = EDGE_CURVE ( 'NONE', #72, #90, #45, .T. ) ;
#163 = DIRECTION ( 'NONE',  ( 1.000000000000000000, 1.387778780781445700E-016, -0.0000000000000000000 ) ) ;
#164 = PERSON ( 'UNSPECIFIED', 'UNSPECIFIED', 'UNSPECIFIED', ('UNSPECIFIED'), ('UNSPECIFIED'), ('UNSPECIFIED') ) ;
#165 = VECTOR ( 'NONE', #163, 1000.000000000000000 ) ;
#166 = VERTEX_POINT ( 'NONE', #227 ) ;
#167 = PERSON_AND_ORGANIZATION_ROLE ( 'creator' ) ;
#168 = APPLICATION_PROTOCOL_DEFINITION ( 'international standard', 'config_control_design', 1994, #43 ) ;
#169 = PERSON_AND_ORGANIZATION_ROLE ( 'design_owner' ) ;
#170 = CALENDAR_DATE ( 2017, 30, 10 ) ;
#171 = VERTEX_POINT ( 'NONE', #128 ) ;
#172 = DIRECTION ( 'NONE',  ( 1.000000000000000000, 1.387778780781445700E-016, 0.0000000000000000000 ) ) ;
#173 = CC_DESIGN_PERSON_AND_ORGANIZATION_ASSIGNMENT ( #194, #167, ( #73 ) ) ;
#174 = VECTOR ( 'NONE', #51, 1000.000000000000000 ) ;
#175 = ORIENTED_EDGE ( 'NONE', *, *, #141, .T. ) ;
#176 = PERSON_AND_ORGANIZATION ( #164, #98 ) ;
#177 = DESIGN_CONTEXT ( 'detailed design', #43, 'design' ) ;
#178 = PLANE ( 'NONE',  #193 ) ;
#179 = LINE ( 'NONE', #154, #174 ) ;
#180 = ORIENTED_EDGE ( 'NONE', *, *, #225, .F. ) ;
#181 = APPROVAL_ROLE ( '' ) ;
#182 = AXIS2_PLACEMENT_3D ( 'NONE', #220, #16, #32 ) ;
#183 = PERSON_AND_ORGANIZATION ( #164, #98 ) ;
#184 = FACE_OUTER_BOUND ( 'NONE', #197, .T. ) ;
#185 = CARTESIAN_POINT ( 'NONE',  ( 0.0000000000000000000, 0.0000000000000000000, -4.750000000000000000 ) ) ;
#186 = LINE ( 'NONE', #203, #11 ) ;
#187 = APPROVAL ( #9, 'UNSPECIFIED' ) ;
#188 = DIRECTION ( 'NONE',  ( -0.0000000000000000000, -0.0000000000000000000, -1.000000000000000000 ) ) ;
#189 = CARTESIAN_POINT ( 'NONE',  ( 12.49999999999999800, -12.49999999999999600, -4.750000000000000000 ) ) ;
#190 = COORDINATED_UNIVERSAL_TIME_OFFSET ( 5, 0, .BEHIND. ) ;
#191 = EDGE_LOOP ( 'NONE', ( #65, #7, #101, #104 ) ) ;
#192 = ORIENTED_EDGE ( 'NONE', *, *, #67, .T. ) ;
#193 = AXIS2_PLACEMENT_3D ( 'NONE', #62, #207, #84 ) ;
#194 = PERSON_AND_ORGANIZATION ( #164, #98 ) ;
#195 = CLOSED_SHELL ( 'NONE', ( #115, #112, #118, #160, #81, #33 ) ) ;
#196 = PLANE ( 'NONE',  #1 ) ;
#197 = EDGE_LOOP ( 'NONE', ( #28, #140, #6, #22 ) ) ;
#198 = PRODUCT_DEFINITION_FORMATION_WITH_SPECIFIED_SOURCE ( 'ANY', '', #145, .NOT_KNOWN. ) ;
#199 = APPLICATION_PROTOCOL_DEFINITION ( 'international standard', 'config_control_design', 1994, #26 ) ;
#200 = DIRECTION ( 'NONE',  ( 0.0000000000000000000, -0.0000000000000000000, 1.000000000000000000 ) ) ;
#201 = VECTOR ( 'NONE', #52, 1000.000000000000000 ) ;
#202 = CC_DESIGN_PERSON_AND_ORGANIZATION_ASSIGNMENT ( #66, #231, ( #198 ) ) ;
#203 = CARTESIAN_POINT ( 'NONE',  ( -12.50000000000000200, -12.50000000000000000, -4.750000000000000000 ) ) ;
#204 = LINE ( 'NONE', #4, #223 ) ;
#205 = ORIENTED_EDGE ( 'NONE', *, *, #159, .T. ) ;
#206 = FACE_OUTER_BOUND ( 'NONE', #237, .T. ) ;
#207 = DIRECTION ( 'NONE',  ( 1.000000000000000000, 0.0000000000000000000, 0.0000000000000000000 ) ) ;
#208 = DIRECTION ( 'NONE',  ( -0.0000000000000000000, -1.000000000000000000, -0.0000000000000000000 ) ) ;
#209 = LOCAL_TIME ( 9, 12, 5.000000000000000000, #190 ) ;
#210 = VERTEX_POINT ( 'NONE', #234 ) ;
#211 = APPROVAL_PERSON_ORGANIZATION ( #49, #105, #181 ) ;
#212 = APPROVAL_PERSON_ORGANIZATION ( #176, #187, #226 ) ;
#213 = CC_DESIGN_PERSON_AND_ORGANIZATION_ASSIGNMENT ( #183, #92, ( #198 ) ) ;
#214 = APPROVAL_ROLE ( '' ) ;
#215 = CALENDAR_DATE ( 2017, 30, 10 ) ;
#216 = UNCERTAINTY_MEASURE_WITH_UNIT (LENGTH_MEASURE( 1.000000000000000100E-005 ), #95, 'distance_accuracy_value', 'NONE');
#217 = CARTESIAN_POINT ( 'NONE',  ( 12.49999999999999800, 12.50000000000000400, -4.750000000000000000 ) ) ;
#218 = EDGE_CURVE ( 'NONE', #166, #57, #85, .T. ) ;
#219 = FACE_OUTER_BOUND ( 'NONE', #191, .T. ) ;
#220 = CARTESIAN_POINT ( 'NONE',  ( 0.0000000000000000000, 0.0000000000000000000, 4.750000000000000000 ) ) ;
#221 = ORIENTED_EDGE ( 'NONE', *, *, #218, .F. ) ;
#222 = EDGE_CURVE ( 'NONE', #210, #36, #71, .T. ) ;
#223 = VECTOR ( 'NONE', #10, 1000.000000000000000 ) ;
#224 = ORIENTED_EDGE ( 'NONE', *, *, #110, .T. ) ;
#225 = EDGE_CURVE ( 'NONE', #99, #210, #121, .T. ) ;
#226 = APPROVAL_ROLE ( '' ) ;
#227 = CARTESIAN_POINT ( 'NONE',  ( 12.49999999999999800, -12.49999999999999600, 4.750000000000000000 ) ) ;
#228 = DATE_AND_TIME ( #80, #88 ) ;
#229 = PERSON_AND_ORGANIZATION ( #164, #98 ) ;
#230 =( GEOMETRIC_REPRESENTATION_CONTEXT ( 3 ) GLOBAL_UNCERTAINTY_ASSIGNED_CONTEXT ( ( #216 ) ) GLOBAL_UNIT_ASSIGNED_CONTEXT ( ( #95, #54, #76 ) ) REPRESENTATION_CONTEXT ( 'NONE', 'WORKASPACE' ) );
#231 = PERSON_AND_ORGANIZATION_ROLE ( 'design_supplier' ) ;
#232 = DIRECTION ( 'NONE',  ( -0.0000000000000000000, -1.000000000000000000, -0.0000000000000000000 ) ) ;
#233 = CC_DESIGN_PERSON_AND_ORGANIZATION_ASSIGNMENT ( #58, #131, ( #83 ) ) ;
#234 = CARTESIAN_POINT ( 'NONE',  ( -12.50000000000000200, -12.50000000000000000, -4.750000000000000000 ) ) ;
#235 = APPROVAL_PERSON_ORGANIZATION ( #229, #119, #214 ) ;
#236 = ORIENTED_EDGE ( 'NONE', *, *, #137, .F. ) ;
#237 = EDGE_LOOP ( 'NONE', ( #93, #180, #122, #205 ) ) ;
ENDSEC;
END-ISO-10303-21;
