ISO-10303-21;
HEADER;
FILE_DESCRIPTION (( 'STEP AP203' ),
    '1' );
FILE_NAME ('Web Model 17222_17223.step',
    '2021-04-08T13:31:27',
    ( '' ),
    ( '' ),
    'SwSTEP 2.0',
    'SolidWorks 2018',
    '' );
FILE_SCHEMA (( 'CONFIG_CONTROL_DESIGN' ));
ENDSEC;

DATA;
#1 = PERSON_AND_ORGANIZATION ( #132, #144 ) ;
#2 = FACE_OUTER_BOUND ( 'NONE', #65, .T. ) ;
#3 = CC_DESIGN_PERSON_AND_ORGANIZATION_ASSIGNMENT ( #13, #46, ( #79 ) ) ;
#4 = CALENDAR_DATE ( 2021, 8, 4 ) ;
#5 = ADVANCED_BREP_SHAPE_REPRESENTATION ( 'Web Model 17222_17223', ( #24, #146 ), #111 ) ;
#6 = CC_DESIGN_PERSON_AND_ORGANIZATION_ASSIGNMENT ( #162, #7, ( #125 ) ) ;
#7 = PERSON_AND_ORGANIZATION_ROLE ( 'creator' ) ;
#8 = CIRCLE ( 'NONE', #47, 6.349999999999999645 ) ;
#9 = APPLICATION_CONTEXT ( 'configuration controlled 3d designs of mechanical parts and assemblies' ) ;
#10 = CC_DESIGN_DATE_AND_TIME_ASSIGNMENT ( #31, #167, ( #79 ) ) ;
#11 = DATE_AND_TIME ( #174, #157 ) ;
#12 = AXIS2_PLACEMENT_3D ( 'NONE', #16, #164, #17 ) ;
#13 = PERSON_AND_ORGANIZATION ( #132, #144 ) ;
#14 = ORIENTED_EDGE ( 'NONE', *, *, #67, .F. ) ;
#15 = ORIENTED_EDGE ( 'NONE', *, *, #107, .F. ) ;
#16 = CARTESIAN_POINT ( 'NONE',  ( 0.000000000000000000, 0.000000000000000000, 0.000000000000000000 ) ) ;
#17 = DIRECTION ( 'NONE',  ( 1.000000000000000000, 0.000000000000000000, 0.000000000000000000 ) ) ;
#18 = DIRECTION ( 'NONE',  ( 0.000000000000000000, 0.000000000000000000, 1.000000000000000000 ) ) ;
#19 = APPLICATION_PROTOCOL_DEFINITION ( 'international standard', 'config_control_design', 1994, #34 ) ;
#20 = ORIENTED_EDGE ( 'NONE', *, *, #67, .T. ) ;
#21 = CARTESIAN_POINT ( 'NONE',  ( 0.000000000000000000, 0.000000000000000000, 1.000000000000000000 ) ) ;
#22 = PERSON_AND_ORGANIZATION ( #132, #144 ) ;
#23 = CYLINDRICAL_SURFACE ( 'NONE', #53, 6.349999999999999645 ) ;
#24 = MANIFOLD_SOLID_BREP ( 'Boss-Extrude1', #159 ) ;
#25 = PERSON_AND_ORGANIZATION ( #132, #144 ) ;
#26 = PLANE ( 'NONE',  #60 ) ;
#27 = EDGE_LOOP ( 'NONE', ( #96, #93 ) ) ;
#28 = DIRECTION ( 'NONE',  ( -1.000000000000000000, 0.000000000000000000, 0.000000000000000000 ) ) ;
#29 = PRODUCT_DEFINITION_FORMATION_WITH_SPECIFIED_SOURCE ( 'ANY', '', #72, .NOT_KNOWN. ) ;
#30 = DIRECTION ( 'NONE',  ( 0.000000000000000000, 0.000000000000000000, 1.000000000000000000 ) ) ;
#31 = DATE_AND_TIME ( #94, #83 ) ;
#32 =( LENGTH_UNIT ( ) NAMED_UNIT ( * ) SI_UNIT ( .MILLI., .METRE. ) );
#33 = DIRECTION ( 'NONE',  ( 0.000000000000000000, 0.000000000000000000, 1.000000000000000000 ) ) ;
#34 = APPLICATION_CONTEXT ( 'configuration controlled 3d designs of mechanical parts and assemblies' ) ;
#35 = CIRCLE ( 'NONE', #12, 6.349999999999999645 ) ;
#36 = APPROVAL ( #104, 'UNSPECIFIED' ) ;
#37 = DATE_AND_TIME ( #95, #131 ) ;
#38 = ORIENTED_EDGE ( 'NONE', *, *, #134, .T. ) ;
#39 = EDGE_CURVE ( 'NONE', #84, #122, #35, .T. ) ;
#40 = LOCAL_TIME ( 9, 31, 27.00000000000000000, #127 ) ;
#41 = DIRECTION ( 'NONE',  ( -0.000000000000000000, -0.000000000000000000, -1.000000000000000000 ) ) ;
#42 = EDGE_CURVE ( 'NONE', #149, #122, #73, .T. ) ;
#43 = APPROVAL ( #88, 'UNSPECIFIED' ) ;
#44 = PRODUCT_DEFINITION_SHAPE ( 'NONE', 'NONE',  #125 ) ;
#45 = ORIENTED_EDGE ( 'NONE', *, *, #107, .T. ) ;
#46 = PERSON_AND_ORGANIZATION_ROLE ( 'classification_officer' ) ;
#47 = AXIS2_PLACEMENT_3D ( 'NONE', #21, #33, #158 ) ;
#48 = COORDINATED_UNIVERSAL_TIME_OFFSET ( 5, 0, .BEHIND. ) ;
#49 = PERSON_AND_ORGANIZATION ( #132, #144 ) ;
#50 = DIRECTION ( 'NONE',  ( -0.000000000000000000, -0.000000000000000000, -1.000000000000000000 ) ) ;
#51 = APPROVAL_DATE_TIME ( #89, #43 ) ;
#52 = DIRECTION ( 'NONE',  ( 1.000000000000000000, 0.000000000000000000, 0.000000000000000000 ) ) ;
#53 = AXIS2_PLACEMENT_3D ( 'NONE', #155, #62, #152 ) ;
#54 = CARTESIAN_POINT ( 'NONE',  ( 0.000000000000000000, 0.000000000000000000, 0.000000000000000000 ) ) ;
#55 = EDGE_LOOP ( 'NONE', ( #173, #139, #45, #80 ) ) ;
#56 = AXIS2_PLACEMENT_3D ( 'NONE', #85, #50, #28 ) ;
#57 = VECTOR ( 'NONE', #41, 1000.000000000000000 ) ;
#58 = ORIENTED_EDGE ( 'NONE', *, *, #114, .T. ) ;
#59 = PERSON_AND_ORGANIZATION ( #132, #144 ) ;
#60 = AXIS2_PLACEMENT_3D ( 'NONE', #140, #30, #165 ) ;
#61 = SHAPE_DEFINITION_REPRESENTATION ( #44, #5 ) ;
#62 = DIRECTION ( 'NONE',  ( -0.000000000000000000, -0.000000000000000000, -1.000000000000000000 ) ) ;
#63 = CC_DESIGN_PERSON_AND_ORGANIZATION_ASSIGNMENT ( #1, #103, ( #29 ) ) ;
#64 = CARTESIAN_POINT ( 'NONE',  ( 6.349999999999999645, 7.776507174585692163E-16, 0.000000000000000000 ) ) ;
#65 = EDGE_LOOP ( 'NONE', ( #14, #102, #58, #15 ) ) ;
#66 = DIRECTION ( 'NONE',  ( 1.000000000000000000, 0.000000000000000000, 0.000000000000000000 ) ) ;
#67 = EDGE_CURVE ( 'NONE', #149, #90, #148, .T. ) ;
#68 = CC_DESIGN_SECURITY_CLASSIFICATION ( #79, ( #29 ) ) ;
#69 = SECURITY_CLASSIFICATION_LEVEL ( 'unclassified' ) ;
#70 = UNCERTAINTY_MEASURE_WITH_UNIT (LENGTH_MEASURE( 1.000000000000000082E-05 ), #32, 'distance_accuracy_value', 'NONE');
#71 = APPROVAL_ROLE ( '' ) ;
#72 = PRODUCT ( 'Web Model 17222_17223', 'Web Model 17222_17223', '', ( #171 ) ) ;
#73 = LINE ( 'NONE', #141, #57 ) ;
#74 = ADVANCED_FACE ( 'NONE', ( #136 ), #26, .T. ) ;
#75 = ADVANCED_FACE ( 'NONE', ( #2 ), #124, .T. ) ;
#76 = LOCAL_TIME ( 9, 31, 27.00000000000000000, #48 ) ;
#77 = APPROVAL_DATE_TIME ( #37, #135 ) ;
#78 = AXIS2_PLACEMENT_3D ( 'NONE', #101, #18, #113 ) ;
#79 = SECURITY_CLASSIFICATION ( '', '', #69 ) ;
#80 = ORIENTED_EDGE ( 'NONE', *, *, #39, .T. ) ;
#81 = CC_DESIGN_PERSON_AND_ORGANIZATION_ASSIGNMENT ( #49, #92, ( #72 ) ) ;
#82 = CC_DESIGN_APPROVAL ( #36, ( #29 ) ) ;
#83 = LOCAL_TIME ( 9, 31, 27.00000000000000000, #142 ) ;
#84 = VERTEX_POINT ( 'NONE', #153 ) ;
#85 = CARTESIAN_POINT ( 'NONE',  ( 0.000000000000000000, 0.000000000000000000, 1.000000000000000000 ) ) ;
#86 = DIRECTION ( 'NONE',  ( 1.000000000000000000, 0.000000000000000000, -0.000000000000000000 ) ) ;
#87 = PLANE ( 'NONE',  #105 ) ;
#88 = APPROVAL_STATUS ( 'not_yet_approved' ) ;
#89 = DATE_AND_TIME ( #168, #76 ) ;
#90 = VERTEX_POINT ( 'NONE', #166 ) ;
#91 = APPLICATION_PROTOCOL_DEFINITION ( 'international standard', 'config_control_design', 1994, #9 ) ;
#92 = PERSON_AND_ORGANIZATION_ROLE ( 'design_owner' ) ;
#93 = ORIENTED_EDGE ( 'NONE', *, *, #114, .F. ) ;
#94 = CALENDAR_DATE ( 2021, 8, 4 ) ;
#95 = CALENDAR_DATE ( 2021, 8, 4 ) ;
#96 = ORIENTED_EDGE ( 'NONE', *, *, #39, .F. ) ;
#97 = APPROVAL_PERSON_ORGANIZATION ( #22, #135, #71 ) ;
#98 = DESIGN_CONTEXT ( 'detailed design', #34, 'design' ) ;
#99 = EDGE_LOOP ( 'NONE', ( #38, #20 ) ) ;
#100 = FACE_OUTER_BOUND ( 'NONE', #55, .T. ) ;
#101 = CARTESIAN_POINT ( 'NONE',  ( 0.000000000000000000, 0.000000000000000000, 0.000000000000000000 ) ) ;
#102 = ORIENTED_EDGE ( 'NONE', *, *, #42, .T. ) ;
#103 = PERSON_AND_ORGANIZATION_ROLE ( 'design_supplier' ) ;
#104 = APPROVAL_STATUS ( 'not_yet_approved' ) ;
#105 = AXIS2_PLACEMENT_3D ( 'NONE', #54, #143, #86 ) ;
#106 = LINE ( 'NONE', #154, #169 ) ;
#107 = EDGE_CURVE ( 'NONE', #90, #84, #106, .T. ) ;
#108 = COORDINATED_UNIVERSAL_TIME_OFFSET ( 5, 0, .BEHIND. ) ;
#109 = CIRCLE ( 'NONE', #78, 6.349999999999999645 ) ;
#110 = DATE_AND_TIME ( #4, #40 ) ;
#111 =( GEOMETRIC_REPRESENTATION_CONTEXT ( 3 ) GLOBAL_UNCERTAINTY_ASSIGNED_CONTEXT ( ( #70 ) ) GLOBAL_UNIT_ASSIGNED_CONTEXT ( ( #32, #170, #129 ) ) REPRESENTATION_CONTEXT ( 'NONE', 'WORKASPACE' ) );
#112 = CC_DESIGN_APPROVAL ( #135, ( #125 ) ) ;
#113 = DIRECTION ( 'NONE',  ( 1.000000000000000000, 0.000000000000000000, 0.000000000000000000 ) ) ;
#114 = EDGE_CURVE ( 'NONE', #122, #84, #109, .T. ) ;
#115 = APPROVAL_ROLE ( '' ) ;
#116 = DATE_TIME_ROLE ( 'creation_date' ) ;
#117 = PERSON_AND_ORGANIZATION_ROLE ( 'creator' ) ;
#118 = ADVANCED_FACE ( 'NONE', ( #100 ), #23, .T. ) ;
#119 = AXIS2_PLACEMENT_3D ( 'NONE', #126, #138, #52 ) ;
#120 = ADVANCED_FACE ( 'NONE', ( #175 ), #87, .F. ) ;
#121 = CC_DESIGN_PERSON_AND_ORGANIZATION_ASSIGNMENT ( #25, #117, ( #29 ) ) ;
#122 = VERTEX_POINT ( 'NONE', #64 ) ;
#123 = PERSON_AND_ORGANIZATION ( #132, #144 ) ;
#124 = CYLINDRICAL_SURFACE ( 'NONE', #56, 6.349999999999999645 ) ;
#125 = PRODUCT_DEFINITION ( 'UNKNOWN', '', #29, #98 ) ;
#126 = CARTESIAN_POINT ( 'NONE',  ( 0.000000000000000000, 0.000000000000000000, 1.000000000000000000 ) ) ;
#127 = COORDINATED_UNIVERSAL_TIME_OFFSET ( 5, 0, .BEHIND. ) ;
#128 = DIRECTION ( 'NONE',  ( -0.000000000000000000, -0.000000000000000000, -1.000000000000000000 ) ) ;
#129 =( NAMED_UNIT ( * ) SI_UNIT ( $, .STERADIAN. ) SOLID_ANGLE_UNIT ( ) );
#130 = APPROVAL_DATE_TIME ( #110, #36 ) ;
#131 = LOCAL_TIME ( 9, 31, 27.00000000000000000, #161 ) ;
#132 = PERSON ( 'UNSPECIFIED', 'UNSPECIFIED', 'UNSPECIFIED', ('UNSPECIFIED'), ('UNSPECIFIED'), ('UNSPECIFIED') ) ;
#133 = CARTESIAN_POINT ( 'NONE',  ( 6.349999999999999645, 7.776507174585692163E-16, 1.000000000000000000 ) ) ;
#134 = EDGE_CURVE ( 'NONE', #90, #149, #8, .T. ) ;
#135 = APPROVAL ( #172, 'UNSPECIFIED' ) ;
#136 = FACE_OUTER_BOUND ( 'NONE', #99, .T. ) ;
#137 = APPROVAL_PERSON_ORGANIZATION ( #123, #43, #115 ) ;
#138 = DIRECTION ( 'NONE',  ( 0.000000000000000000, 0.000000000000000000, 1.000000000000000000 ) ) ;
#139 = ORIENTED_EDGE ( 'NONE', *, *, #134, .F. ) ;
#140 = CARTESIAN_POINT ( 'NONE',  ( 0.000000000000000000, 0.000000000000000000, 1.000000000000000000 ) ) ;
#141 = CARTESIAN_POINT ( 'NONE',  ( 6.349999999999999645, 7.776507174585692163E-16, 1.000000000000000000 ) ) ;
#142 = COORDINATED_UNIVERSAL_TIME_OFFSET ( 5, 0, .BEHIND. ) ;
#143 = DIRECTION ( 'NONE',  ( 0.000000000000000000, 0.000000000000000000, 1.000000000000000000 ) ) ;
#144 = ORGANIZATION ( 'UNSPECIFIED', 'UNSPECIFIED', '' ) ;
#145 = DIRECTION ( 'NONE',  ( 0.000000000000000000, 0.000000000000000000, 1.000000000000000000 ) ) ;
#146 = AXIS2_PLACEMENT_3D ( 'NONE', #156, #145, #66 ) ;
#147 = APPROVAL_ROLE ( '' ) ;
#148 = CIRCLE ( 'NONE', #119, 6.349999999999999645 ) ;
#149 = VERTEX_POINT ( 'NONE', #133 ) ;
#150 = CC_DESIGN_APPROVAL ( #43, ( #79 ) ) ;
#151 = APPROVAL_PERSON_ORGANIZATION ( #59, #36, #147 ) ;
#152 = DIRECTION ( 'NONE',  ( -1.000000000000000000, 0.000000000000000000, 0.000000000000000000 ) ) ;
#153 = CARTESIAN_POINT ( 'NONE',  ( -6.349999999999999645, 0.000000000000000000, 0.000000000000000000 ) ) ;
#154 = CARTESIAN_POINT ( 'NONE',  ( -6.349999999999999645, 0.000000000000000000, 1.000000000000000000 ) ) ;
#155 = CARTESIAN_POINT ( 'NONE',  ( 0.000000000000000000, 0.000000000000000000, 1.000000000000000000 ) ) ;
#156 = CARTESIAN_POINT ( 'NONE',  ( 0.000000000000000000, 0.000000000000000000, 0.000000000000000000 ) ) ;
#157 = LOCAL_TIME ( 9, 31, 27.00000000000000000, #108 ) ;
#158 = DIRECTION ( 'NONE',  ( 1.000000000000000000, 0.000000000000000000, 0.000000000000000000 ) ) ;
#159 = CLOSED_SHELL ( 'NONE', ( #75, #118, #74, #120 ) ) ;
#160 = PRODUCT_RELATED_PRODUCT_CATEGORY ( 'detail', '', ( #72 ) ) ;
#161 = COORDINATED_UNIVERSAL_TIME_OFFSET ( 5, 0, .BEHIND. ) ;
#162 = PERSON_AND_ORGANIZATION ( #132, #144 ) ;
#163 = CC_DESIGN_DATE_AND_TIME_ASSIGNMENT ( #11, #116, ( #125 ) ) ;
#164 = DIRECTION ( 'NONE',  ( 0.000000000000000000, 0.000000000000000000, 1.000000000000000000 ) ) ;
#165 = DIRECTION ( 'NONE',  ( 1.000000000000000000, 0.000000000000000000, -0.000000000000000000 ) ) ;
#166 = CARTESIAN_POINT ( 'NONE',  ( -6.349999999999999645, 0.000000000000000000, 1.000000000000000000 ) ) ;
#167 = DATE_TIME_ROLE ( 'classification_date' ) ;
#168 = CALENDAR_DATE ( 2021, 8, 4 ) ;
#169 = VECTOR ( 'NONE', #128, 1000.000000000000000 ) ;
#170 =( NAMED_UNIT ( * ) PLANE_ANGLE_UNIT ( ) SI_UNIT ( $, .RADIAN. ) );
#171 = MECHANICAL_CONTEXT ( 'NONE', #9, 'mechanical' ) ;
#172 = APPROVAL_STATUS ( 'not_yet_approved' ) ;
#173 = ORIENTED_EDGE ( 'NONE', *, *, #42, .F. ) ;
#174 = CALENDAR_DATE ( 2021, 8, 4 ) ;
#175 = FACE_OUTER_BOUND ( 'NONE', #27, .T. ) ;
ENDSEC;
END-ISO-10303-21;
